Gametabs
Home
Tabs
Random

The Peace Between Mounds (Saving Theme)

Average rating: 5.000

1 ratings

Composer:

Tabber:

Style:

Instrument:

Created: February 09, 2010 at 12:00 AM

            "The Peace Between Mounds"
Game: Etrian Odyssey
Composer: Yuzo Koshiro
Tabbed by: lonstile
February 8, 2010


 (Capo 1)



     E  E  E  E  E  E  E  E     E  E  E  E  E  E  E  E   
E||--------------------------|-----------2--0-----2--0--|
B||-----------7--6-----7--6--|--------0--------0--------|
G||--------6--------6--------|--------------------------|
D||-----6--------------------|-----4--------------------|
A||--4-----------------------|--2-----------------------|
E||--------------------------|--------------------------|


  E  E  E  E  E  E  E  E     E  E  E  E  E  E  E  E   
-----------2--0-----2--0--|--7-----0-----2--0--------|
--------0--------0--------|-----7-----0--------0-----|
--------------------------|--------------------------|
-----2--------------------|-----------------------4--|
--0-----------------------|--------------------------|
--------------------------|--------------------------|


  E  E  E  E  E  E  E  E     E  E  E  E  E  E  E  E   
-----------0--------0-----|-----------0--------0-----|
--------------3--------3--|--------------3--------3--|
--------2--------2--------|--------2--------2--------|
-----0--------------------|--------------------------|
--------------------------|-----3--------------------|
--3-----------------------|--1-----------------------|


  E  E  E  E  E  E  E  E     E  E  E  E  E  E  E  E    
--------------0-----0--2--|--7--0-----0--7-----0-----||
-----------0-----0--------|--------0--------7-----7--||
--------------------------|--------------------------||
--------4-----------------|-----0--------------------||
-----2--------------------|--------------0--7--------||
--0-----------------------|--3-----------------------||




Duration Legend
---------------
W - whole
H - half
Q - quarter
E - 8th
S - 16th
        
Comments

No comments yet