Gametabs
Home
Tabs
Random

Yureai

Average rating: 5.000

7 ratings

Composer:

Tabber:

Style:

Instrument:

Created: July 05, 2013 at 12:00 AM

            Title: Yureai
SubTitle: Elfen Lied
Artist: Kayo Konishi & Yukio Kondo
Tabber: Mitch Jackson
Tempo = 62
T/S = 4/4



     E  E  E  E  E  E  E  E       E  E  E  E  E  E  E  E       E  E  E  E  E  E  E  E       E  E  E  E  E  E  E  E
E |----------------------------|--------0-----------0-------|----------------------------|--------1-----------0-------|
B |--------4-----------4-------|----------------------------|--------4-----------4-------|----------------------------|
G |-----3-----3-----3----------|-----3-----3-----3-----3----|-----3-----3-----3----------|-----3-----3-----3-----3----|
D |----------------------------|----------------------------|----------------------------|----------------------------|
A |--0-----------0-------------|----------------------------|--0-----------0-------------|----------------------------|
E |-----------------------2----|--1-----------1-------------|-----------------------2----|--1-----------1-------------|



     E  E  E  E  E  E  E  E       E  E  E  E  E  E  E  E       Q.       Q.       Q          Q.       H           E
  |----------------------------|--------2--1-----------1----|--3--------4--------6-------|--7--------7L----------L----|
  |--------4-----------4-------|--------------4--3--4-------|----------------------------|----------(4)----------L----|
  |-----3-----3-----3----------|-----3----------------------|----------------------------|--5--------5L----------L----|
  |----------------------------|----------------------------|--1-------------------------|----------------------------|
  |--0-----------0-------------|----------------------------|----------------------------|--3-------------------------|
  |-----------------------2----|--1-------------------------|----------------------------|----------------------------|



     Q.       Q.       Q          Q.       Q     Q     E       Q.       Q.       Q          H           Q     Q
  |--3--------4--------6-------|--7--------7-----6-----4----|--3--------3----------------|--------------5-----4-------|
  |----------------------------|----------(4)---------------|--------------------3-------|--2-------------------------|
  |----------------------------|--5--------5----------------|----------------------------|----------------------------|
  |--1-------------------------|----------------------------|--1-------------------------|--0-------------------------|
  |----------------------------|--3-------------------------|----------------------------|----------------------------|
  |----------------------------|----------------------------|----------------------------|----------------------------|

                                                             Put Capo on 9th Fret
                                                             7/4
     H           Q     Q          W                            E  Q     Q.       E  E  Q     E  E  Q
  |--3-----------------3-------|--2-------------------------|-----0-----2-----------3--2--------3--2-------|
  |--1-----------1-------------|--0-------------------------|--0-----------------0-----------0-------------|
  |----------------------------|----------------------------|----------------------------------------------|
  |--1-------------------------|--0-------------------------|----------------------------------------------|
  |----------------------------|----------------------------|----------------------------------------------|
  |----------------------------|----------------------------|----------------------------------------------|



     E  E  E  E  E  E  E  Q     E  E  E  E  S S      E  E  S S E  E  E  E  S E.   E  E  E  E  E
  |-----3--2--------0-----2-----------3--2--------|-----3--2---------0-----2------------3--2-------|
  |--0-----------0-----------------0--------------|--0------------0------------------0-------------|
  |-----------------------------------------------|------------------------------------------------|
  |--------2-----0-----------------------2----0---|--------------------------2----0----------------|
  |-----2-----2--------4--------0--2--------2-----|-----4------0--2--------2------------4-----0----|
  |--0--------------------------------0-----------|----------0----------0------------------0-------|



     E  E  E  S S E  E  E  Q     E  E  S S S S E       E  E  E  E  E  E  E  S E  S E  E  E  E  E
  |-----3--2---------0-----2-----------3---2--------|-----3--2--------0-----2------------3--2-------|
  |--0------------0-----------------0---------------|--0-----------0------------------0-------------|
  |-------------------------------------------------|-----------------------------------------------|
  |-------------2----0-------------------2-----0----|-------------------------2----0--------2-------|
  |--2--------2------------4-----0--2--------2------|-----4-----0--2-------------2-------4-----0----|
  |--------0------------0--------------0------------|--------0-----------0------------0-------------|



     E  E  E.   S S S E  E  S E.   E  E  S S E  E       E  S S E  E  E  E  E  S E.   E  E  S S E  E
  |-----3--2----------0-----2------------3---2-------|-----3---2--------0-----2------------3---2-------|
  |--0------------0-------------------0--------------|--0------------0------------------0--------------|
  |--------------------------------------------------|-------------------------------------------------|
  |-------------2-----0------------------2------0----|------------------------2------0-----------------|
  |-----2-----------2----4----0----2-------2---------|-----4------0--2----------2----------4------0----|
  |--------0----------------0---------0--------------|-------0-------------0-----------------0---------|


                                                     6/4
     E  E  E  S S E  E  E  E  E  S S E  E  E  S S      E  E  E  E  E  E  E  E  E  S S E  E
  |-----3--2---------0-----2------------3--2--------|-----3--2--------5--3--------5---3-------|
  |--0------------0------------------0--------------|--0-----------0-----------0--------------|
  |-------------------------------------------------|-----------------------------------------|
  |-------------2-------0------------------2--2-----|-----0-------------------------2----0----|
  |--2------------------------4----0----2-----------|-----------4--------0--2-----2-----------|
  |-----------0------------------0--------------0---|-----------------0--------0--------------|


                                             7/4
     E  E  E  E  E  E  E  S S E  E  E  E       E  E  E  E  E  S E.   E  E  E  E  E  E  E
  |-----3--2--------3--2---------5--3-------|-----5--3--------0------2-----------3--2-------|
  |--0-----------0------------0-------------|--0-----------0------------------0-------------|
  |-----------------------------------------|-----------------------------------------------|
  |-------------------------2----0----------|--2----------------2----0----------------------|
  |-----4-----0--2--------2------------4----|-----0-----2-----2------------4-----0-----2----|
  |--------0-----------0------------0-------|--------------0------------0-------------------|


                                                    6/4
     E  S S E  E  E  E  E  Q     E  E  S S E  E       E  E  E  E  E  E  E  S S E  E  E  E
  |-----3---2--------0-----2-----------3---2-------|-----3--2--------3--2---------3--2-------|
  |--0------------0-----------------0--------------|--0-----------0------------0-------------|
  |------------------------------------------------|-----------------------------------------|
  |--2----2----0--2----------------------2----0----|--------2----------------2----0----------|
  |------------------4-----0-----2-----2-----------|-----4-----0-----2-----2------------4----|
  |-----0---------------0-----------0--------------|--0-----------------0------------0-------|



     E  E  E  E  E  S S E  E  E  E  E  E       E  E  W                       Q
  |-----2--0--------2---0--------2--0-------|-----0----------------------------------||
  |-----------------------------------------|----------------------------------------||
  |--3-----------3------------3-------------|--3-------------------------------------||
  |--2----------------2----0--------2-------|--------2L----------------------L-------||
  |-----0-----2-----2------------4-----0----|-----2----------------------------------||
  |--------------0------------0-------------|--0-------------------------------------||



        
Comments

No comments yet