Gametabs
Home
Tabs
Random

Lilium

Average rating: 5.000

6 ratings

Composer:

Tabber:

Style:

Instrument:

Created: September 30, 2015 at 12:00 AM

            Lilium
from Elfen Lied
music by Kayo Konishi, Yukio Kondo (MOKA☆)
tab by MechaKrauser

Standard tuning, capo on 7
2/4 time, with some bars 3/4 time, 60bpm

   2/4                                                       3/4
     Q    E  E     E  E  E  E     Q    E  E     E  E  E  E     E  E  E  E  E  E   
E||----------2--|--------------|----------2--|--------------|--0-----------------|
B||-------0-----|--2--------3--|--3----0-----|--2--------3--|-----3--0-----------|
G||-------------|--------3-----|-------------|--------3-----|--------------0-----|
D||-------------|-----4--------|-------------|-----4--------|-----------0-----0--|
A||-------------|--1-----------|--2----------|--1-----------|--2-----------------|
E||-------------|--------------|-------------|--------------|--------3-----------|


 2/4
  E  E  E  E     E  E  E  E     E  E  E  E     E  E  E  E     E  E  E  E     E  E  E  E   
--------------|--------------|--------------|--------------|-----------0--|--------------|
-----2--------|--------------|-----0--------|--------0-----|-----2--3-----|--3-----------|
--------2--0--|--2-----------|--------0-----|--0--2--------|--------------|-----------4--|
--2-----------|--------4-----|--1--------4--|-----------2--|--------------|--------4-----|
--------------|--0--4-----4--|--------------|--------------|-----1--2-----|-----2-----2--|
--------------|--------------|--------------|--3-----------|--4-----------|--2-----------|


                                                          3/4
  Q    E  E     E  E  E  E     Q    E  E     E  E  E  E     E  E  E  E  E  E   
----------2--|--------------|----------2--|--------------|--0-----------------|
--2----0-----|--2--------3--|--3----0-----|--2--------3--|-----3--0-----------|
-------------|--------3-----|-------------|--------3-----|--------------0-----|
-------------|-----4--------|-------------|-----4--------|-----------0-----0--|
-------------|--1-----------|--2----------|--1-----------|--2-----------------|
--2----------|--------------|-------------|--------------|--------3-----------|


 2/4
  E  E  E  E     E  E  E  E     E  E  E  E     E  E  E  E     E  E  E  E     E  E  E  E   
--------------|--------------|--------------|-----0--------|--------------|--------0--2--|
-----2--------|--------------|-----0--------|--------3--2--|--0-----------|--0--4--2--4--|
--------2--0--|--2-----------|--------0-----|--0-----------|-----3--1--3--|-----4--------|
--2-----------|--------4-----|--1--------4--|--------------|--------------|--------------|
--------------|--0--4-----4--|--------------|--------------|--------------|--2-----------|
--------------|--------------|--------------|--3-----4-----|--2-----------|--------------|


                                                  >                           
                                      |--3--|                                 
  E  E  E  E     E  E  E  E     E  E  E  E  E     E  E  E  E     E  E  E  E   
--3--------3--|--2--5-----2--|--0--------------|--------0--2--|--3--------3--|
-----3--2-----|--------3-----|-----3--2--------|-----4--2--4--|-----3--2-----|
--------------|--------------|-----------3--0--|-----4--------|--------------|
--2-----------|--0-----------|-----------------|--4-----------|--2-----------|
--------0-----|--------------|--3--------------|--------------|--------0-----|
--------------|--------3-----|--------2--------|--2-----------|--------------|


  E  E  E  E     E  E  E  E     E  E  E  E     H           Q    E  E     E  E  E  E   
--2--5-----2--|--0-----------|-----------0--|-----------|----------2--|--------------|
--------3-----|-----3--2--0--|--3-----------|--2--------|-------0-----|--2--------3--|
--------0-----|--------------|--------------|-----------|-------------|--------3-----|
--0-----------|--------------|-----4--------|--4--------|-------------|-----4--------|
--------------|--------------|--------------|-----------|-------------|--1-----------|
--------------|--3-----4-----|--2-----2-----|--2--------|-------------|--------------|


                             3/4                  2/4
  Q    E  E     E  E  E  E     E  E  E  E  E  E     E  E  E  E     E  E  E  E   
----------2--|--------------|--0-----------------|--------------|--------------|
--3----0-----|--2--------3--|-----3--0-----------|-----2--------|--------------|
-------------|--------3-----|--------------0-----|--------2--0--|--2-----------|
-------------|-----4--------|-----------0-----0--|--2-----------|--------4-----|
--2----------|--1-----------|--2-----------------|--------------|--0--4-----4--|
-------------|--------------|--------3-----------|--------------|--------------|


  E  E  E  E     E  E  E  E     E  E  E  E     E  E  E  E     Q    E  E     E  E  E  E   
--------------|--------------|-----------0--|--------------|----------2--|--------------|
-----0--------|--------0-----|-----2--3-----|--3-----------|--2----0-----|--2--------3--|
--------0-----|--0--2--------|--------------|-----------4--|-------------|--------3-----|
--1--------4--|-----------2--|--------------|--------4-----|-------------|-----4--------|
--------------|--------------|-----1--2-----|-----2-----2--|-------------|--1-----------|
--------------|--3-----------|--4-----------|--2-----------|--2----------|--------------|


                             3/4                  2/4
  Q    E  E     E  E  E  E     E  E  E  E  E  E     E  E  E  E     E  E  E  E   
----------2--|--------------|--0-----------------|--------------|--------------|
--3----0-----|--2--------3--|-----3--0-----------|-----2--------|--------------|
-------------|--------3-----|--------------0-----|--------2--0--|--2-----------|
-------------|-----4--------|-----------0-----0--|--2-----------|--------4-----|
--2----------|--1-----------|--2-----------------|--------------|--0--4-----4--|
-------------|--------------|--------3-----------|--------------|--------------|


                                                              ^                       
  E  E  E  E     E  E  E  E     E  E  E  E     E  E  E  E     H           Q    E  E   
--------------|-----0--------|--------------|-----------0--|-----------|----------0--|
-----0--------|--------3--2--|--0-----------|--0-----0-----|--3--------|-------3--2--|
--------0-----|--0-----------|-----3--1--3--|--------------|--4--------|-------4-----|
--1--------4--|--------------|--------------|-----4--------|--4--------|-------------|
--------------|--------------|--------------|--2-----------|--2--------|-------------|
--------------|--3-----4-----|--2-----------|--------------|-----------|-------------|


  E  E  E  E     E  E  E  E     E  E  E  E     E  E  E  E     E  E  E  E     E  E  E  E   
--2--------0--|--3--2--0-----|-----------0--|--2--------4--|--0--2--2-----|-----------0--|
--3-----3-----|-----------3--|--2-----3-----|--3-----3-----|--------------|-----3--3-----|
-----2--------|-----2--------|-----2--------|-----2--------|--------------|--4--------0--|
--0-----------|-----------4--|-----2--------|--0--------2--|-----------4--|--------4-----|
--------------|--4-----2-----|--0-----------|--------------|--------2-----|--------------|
--------------|--------------|--------------|--------------|--------------|--------------|


  E  E  E  E     E  E  E  E     Q    E  E     E  E  E  E     E  E  E  E     E  E  E  E   
--2--------0--|--3--2--0--2--|-------------|--------------|--2--5--4--0--|--2-----------|
--3-----3-----|--------------|--3----2--3--|--0-----2--3--|--------------|-----------3--|
-----2--------|--------------|-------------|--------0-----|-----2--------|--------4-----|
--0-----------|-----------4--|-------------|-----0--------|--0-----2-----|-----4--------|
--------------|--4-----2-----|-------0-----|--------------|--------------|--2-----------|
--------------|--------------|-------------|--3-----------|--------------|--------------|


  E  E  E  E     E  E  E  E     Q    E  E     E  E  E  E     E  E  E  E     E  E  E  E   
--------7-----|--------5--3--|--2----3--0--|--2-----------|--------------|-----------0--|
--2-----------|-----0--3-----|-------5-----|-----------2--|--3--3--2-----|--0-----3-----|
-----2--------|--0-----------|-------------|--------4-----|-----4-----2--|--------0-----|
-----------0--|--------------|-------------|-----4--------|--------------|-----0--------|
--------------|--------------|-------------|--2-----------|--------0-----|--------------|
--------3-----|--------------|-------------|--------------|--------------|--3-----------|


               *rall--------->45bpm
                                      ^                  
  E  E  E  E     E  E  E  E     E  E  Q       H          
--2--5--4--0--|--2-----------|-------------|-----------||
--------------|--------------|--------3----|--L--------||
--------------|--------4-----|-------------|-----------||
--0-----2-----|-----4-----4--|--2-----0----|--L--------||
-----------4--|--2-----------|-----4--2----|--L--------||
--------------|--------------|-------------|-----------||




Duration Legend
---------------
W - whole
H - half
Q - quarter
E - 8th
S - 16th
T - 32nd
X - 64th
. - note dotted
|-n-|  - n-tuplets


Tablature Legend
----------------
L - tied note
x - dead note
g - grace note
(n) - ghost note
> - accentuded note
NH - natural harmonic
AH - artificial harmonic
TH - tapped harmonic
SH - semi harmonic
PH - pitch harmonic
h - hammer on
p - pull off
b - bend
br - bendRelease
pb - preBend
pbr - preBendRelease
brb - bendReleaseBend
\n/ - tremolo bar dip
\n - tremolo bar dive
-/n - tremolo bar Release up
/n\ - tremolo bar inverted dip
/n - tremolo bar return
-\n - tremolo bar Release down
S - shift slide
s - legato slide
/ -  slide into from below or out of upwards
\ -  slide into from above or out of downwards
~ - vibrato
W - wide vibrato
tr - trill
TP - tremolo picking
T - tapping
S - slap
P - pop
< - fade in
^ - brush up
v - brush down

        
Comments

@150link (March 21, 2016 at 10:02 AM)

This tab is from Mr. Lonlonjp