Gametabs
Home
Tabs
Random

Lilium

Average rating: 4.500

28 ratings

Composer:

Tabber:

Style:

Instrument:

Created: March 19, 2007 at 12:00 AM

            Lilium
Elfen Lied
Composer: Kumiko Oguro
Tabbed by Alex Brenzinger [[email protected]]
March 19 2007

e|-----9----------------9---------7---------
B|--7-----9--10-10---7-----9--10-----10--7--
G|------------------------------------------
D|------------------------------------------
A|------------------------------------------
E|------------------------------------------

e|---------------------------------------7-------------
B|--9-----------7--------------7--9--10----10--10--9---
G|-----9--7--9-----7--6--7--9--------------------------
D|-----------------------------------------------------
A|-----------------------------------------------------
E|-----------------------------------------------------

e|-----9----------------9---------7--------
B|--7-----9--10-10---7-----9--10-----10--7-
G|-----------------------------------------
D|-----------------------------------------
A|-----------------------------------------
E|-----------------------------------------

e|--------------------------7---------------------------
B|--9-----------7--------------10--9--7-------------7---
G|-----9--7--9-----7--6--7---------------10--8--10------
D|------------------------------------------------------
A|------------------------------------------------------
E|------------------------------------------------------

e|------7--9--10--------10--9--12----9--8-------------------7-----
B|--11-----------10--9------------10------10--9--7--10--10-----9--
G|----------------------------------------------------------------
D|----------------------------------------------------------------
A|----------------------------------------------------------------
E|----------------------------------------------------------------

e|-----9----------------9---------7---------
B|--7-----9--10-10---7-----9--10-----10--7--
G|------------------------------------------
D|------------------------------------------
A|------------------------------------------
E|------------------------------------------

e|--------------------------7--------------------------
B|--9-----------7--------------10--9--7-------------7--
G|-----9--7--9-----7--6--7---------------10--8--10-----
D|-----------------------------------------------------
A|-----------------------------------------------------
E|-----------------------------------------------------

        
Comments

@Ren-sama (March 23, 2007 at 10:15 AM)

Oh gosh, thank you so much! I love this song.


@Mirosuke (March 30, 2007 at 3:08 AM)

DUDE DUDE DUDE

YOU FU**ING ROOOOCKKKKK!!!!

100000000000 Stars 100000000000 Rated 100000000000 Cheers


@Andy (April 01, 2007 at 11:06 PM)

Thank you SO much!!

If i learn this perfect my GF will LOVE IT!


@archard (April 13, 2007 at 12:21 AM)

Looks like this tab is now the highest rated on the site. Good job.


@solid_smoke (April 13, 2007 at 1:31 AM)

Thanks archard :)


@archard (April 13, 2007 at 2:11 AM)

Guess I spoke too soon, lol. Kakariko Village is ahead now by virtue of alphabetical order.


@solid_smoke (April 13, 2007 at 6:07 AM)

I knew that alphabet would come back to haunt me someday. :(


@archard (April 13, 2007 at 4:41 PM)

Guess I spoke too soon again. If the ratings are tied it sorts them by Page ID rather than alphabetical order.


@solid_smoke (April 16, 2007 at 3:46 AM)

I knew that Page ID would come back to haunt me someday. :(


@DKSkater (April 16, 2007 at 8:11 AM)

tnx tnx tnx tnx a million times best tab in the world (and the easiest i ever tried to learn:)) )