Gametabs
Home
Tabs
Random

Lilium

Average rating: 4.938

16 ratings

Composer:

Tabber:

Style:

Instrument:

Created: January 22, 2009 at 12:00 AM

            Song: Lilium (Full Version)
Anime: Elfen Lied
Composed by: MOKA + Kumiko Noma
Tabbed by: Ampleforth and Aschiffer 1/18/09


                                      NH                                        
     H.           E  E     E  E  E    E   E   E   E  E     E  E  E   E  E   E   
E||------------------9--|----------------------------9--|---------------7------|
B||---------------7-----|--9-------------10-------------|--9--------10-----10--|
G||---------------------|--------6---------------11-----|--------6-------------|
D||---------------------|-----6-----<>7------11---------|-----6----------------|
A||---------------------|--8--------------9-------0-----|--8------------9------|
E||---------------------|-------------------------------|----------------------|


  E  E  E  E  E  E  E  E     E  E  E  E  E  E  E   E   
--2--------------4--0-----|---------------------------|
--------3--------------3--|--5--------------7---------|
-----2-----2--4-----------|--------6-----------7------|
--0-----------------------|-----6-----6--8--------11--|
--------------------------|--4-----------9------------|
--------------------------|---------------------------|


  E  E  Q    E  E   E  E      E   E   E   E   Q    E  E   
-----------------------7--|---------------------------9--|
--------7-------9--10-----|--10----------10---9----7-----|
--7--9--------------------|----------11------10----------|
--------------------------|------11----------11----------|
--------------------------|------------------------------|
--7----------8------------|---9---------------9----------|


             NH                                        
  E  E  E    E   E   E   E  E     E  E  E   E  E   E   
----------------------------9--|---------------7------|
--9-------------10-------------|--9--------10-----10--|
--------6---------------11-----|--------6-------------|
-----6-----<>7------11---------|-----6----------------|
--8--------------9-------0-----|--8------------9------|
-------------------------------|----------------------|


  E  E  E  E  E  E  E  E     E  E  E  E  E  E  E   E   
--2--------------4--0-----|---------------------------|
--------3--------------3--|--5--------------7---------|
-----2-----2--4-----------|--------6-----------7------|
--0-----------------------|-----6-----6--8--------11--|
--------------------------|--4-----------9------------|
--------------------------|---------------------------|


  E  E  E  E  E   E  E   E      E   E   E  E   E   E  E   E   
-----7--5-------------------|--------------9--10---------10--|
-----------9--7-------------|------11--12---------10--9------|
--7--------------10--8--10--|--11----------------------------|
----------------------------|------------------9-------------|
---------------------8------|---9---------------------7------|
--7-----8-----9-------------|--------------------------------|


  E   E   E  E  E   E  E   E      E   E   E   E   H           Q    E  E   
--9--12------9--8-------------|----------------------------|----------9--|
---------10-----7--10--9------|--10----------12---9--------|--L----7-----|
--9-------------8---------11--|----------11------10--------|--L----------|
--7-------------7-------------|------11----------11--------|--L----------|
----------9-------------------|----------------------------|-------------|
-----------------------8------|---9---------------9--------|--L----------|


             NH                                        
  E  E  E    E   E   E   E  E     E  E  E   E  E   E   
----------------------------9--|---------------7------|
--9-------------10-------------|--9--------10-----10--|
--------6---------------11-----|--------6-------------|
-----6-----<>7------11---------|-----6----------------|
--8--------------9-------0-----|--8------------9------|
-------------------------------|----------------------|


  E  E  E  E  E  E  E  E     E  E  E  E  E  E  E   E   
--2--------------4--0-----|---------------------------|
--------3--------------3--|--5--------------7---------|
-----2-----2--4-----------|--------6-----------7------|
--0-----------------------|-----6-----6--8--------11--|
--------------------------|--4-----------9------------|
--------------------------|---------------------------|


                                                 NH                        
  E  E  E  E  E   E  E   E      E   E   E   E    H           Q     E   E   
-----7--5-------------------|-----------------------------|---------------|
-----------9--7-------------|--------------12--<>7--------|-------10--12--|
--7--------------10--8--10--|--11------11-----------------|---------------|
----------------------------|------11----------<>7--------|---------------|
---------------------8------|---9-------------------------|---------------|
--7-----8-----9-------------|-----------------------------|---------------|


   E  E   E   E   E  E  E   E     Q     E   E   E  E   E   E   E  E   
---9-------------10--9--7------|----------------9---------11------9--|
--10-----10--12------------10--|--9----10--12--10-----10------12-----|
---9--9-------9----------------|--9-------------9--9-----------------|
-------------------------------|--9------------------------9---------|
---0-------------11-----9------|--7-----9--11---0--------------------|
-------------------------------|-------------------------------------|


  E   E   E   E   E   E      E  E   E   E   E  E   E   E   
--9----------------------|---9-------------10--9-------9--|
-------------10--10--12--|--10-----10--12---------12------|
---------11--------------|---9--9-------------------------|
-----11------------------|----------------------------11--|
--9----------------------|---0-------------11------9------|
-------------------------|--------------------------------|


   Q    E   E  E  E  E   E      E   E   E   E   E  E   E  E   
------------------4--5---9--|--12--11-------9----------------|
--10----9--10--7--------10--|----------12--10----------------|
--11----9------7---------9--|--------------11--11--9---------|
--------9------7------------|-------9-----------------11--9--|
--------7------5---------0--|---------------9----------------|
----------------------------|--------------------------------|


  E   E   E   E   E   E   E  E     E   E   E   E   E  E   E  E   
-----14----------14--12--10--9--|-----11-------9----------------|
-------------15-----------------|---------12--10---------10--9--|
---------14---------------------|--9----------11--11--9---------|
------0----------------------7--|------9------------------------|
-------------------------11-----|--------------9----------------|
--0------------------12---------|-------------------------------|


   E  E  E  Q    E  E   E      E   E   E   E   E  E  E   E   
-----------------5--7---9--|--12--11-------9----------------|
--10--9-----7----------10--|------12--12--10--10--9---------|
--11--9--9--7-----------9--|------11------11---------9--11--|
--11--9-----7--------------|---------------9----------------|
---9--7-----5-----------9--|------11------------------------|
---------------------------|--------------------------------|


   E  E   E   Q.     E   E   E  E      S S S  S S S S S S  S S S S  S S  S  
--------------------------------9--|--10------------------10-----9------12-|
--10--9-----------------11--12-----|-----7---10-----9--------9-----10------|
----------9--11--------------------|-------7----7-----9--------9------9----|
--11--9----------------------------|---9----------9-----9------------------|
---------11--12------9-------------|----------------7------------0---------|
-----------------------------------|---------------------------------------|


   S S  S  S  S S  S  S S S S  S S S S S  
----------------9-------8----------------|
--10---10---------10------7---10-----9---|
-----9----11---------11-----8----8-----8-|
-------------11---------7----------7-----|
--------9--------------------------------|
-----------------------------------------|


  S S S S  S  S  S  S  S  S  S  S  S  S  S  S     H.           E  E   
----------------------------------------------|-------------------9--|
----7-----10-------10-------10-------12-------|---9------------7-----|
------8------11-------11-------11-------11----|--10------------------|
--7-----7-------11-------11-------11-------11-|--11------------------|
----------------------------------------------|--11------------------|
-----------9----------------------------------|---9------------------|


             NH                              NH    NH   NH        
  E  E  E    E   E   E   E  E     E  E  E    E     E    E  E  E   
----------------------------9--|---------------------------2-----|
--9-------------10-------------|--9-------------<>12-------------|
--------6---------------11-----|--------6---------------------2--|
-----6-----<>7------11---------|-----6-----<>7--------<>7--0-----|
--8--------------9-------0-----|--8------------------------------|
-------------------------------|---------------------------------|


  E  E  E  E  E  E  E  E     E  E  E  E  E   E  E  E   
-----------4--0-----------|------------------------7--|
--3--------------3--5-----|-----------7---------------|
-----2--4-----------------|--6-----------7------7-----|
-----------------------6--|-----6--8--------11--------|
--------------------4-----|--------9------------------|
--------------------------|---------------------7-----|


                             NH      NH   NH                      
  E  E  E   E  E   E   E     E       E    E  H.                   
--5-----------------------------|------------2------------|-----||
-----9--7-----------------<>12--|-------------------------|-----||
-----------10--8--10--11--------|------------2------------|-----||
--------------------------------|--<>7-------4------------|-----||
---------------8-------9--------|-------------------------|-----||
--8-----9-----------------------|-------<>4--2------------|-----||

        
Comments

@theLured (February 22, 2009 at 3:06 PM)

The midi sounds good. I don't think that I have heard the bit towards the end. This will take me a long time to learn, but I think it is worth it. I like this version better than kabukibear's as his sounds a bit too "up and down". This sounds like a very nice middle ground.


@suciune (January 13, 2010 at 11:46 AM)

it is one of the easiest versions to play thanks alopt


@Ennea (December 29, 2010 at 1:11 PM)

awesome, thanks. sounds a lot better than the version I played so far ;)


@Uminari (March 05, 2012 at 12:37 PM)

Fantastic, challenging arrangement. Thanks.


@diralark (August 05, 2012 at 9:46 PM)

Great music, just still too difficult for me. So I simply applied translation (guitar Pro function) to obtain a Lilium Full by Usaguitarist - detuned v1 .gp5, no sound as great but playable for beginners (^^)


@Basisti94 (March 03, 2013 at 4:04 PM)

I really like this arrangement. It's really hard (for me), yet it it plays really smoothly when played properly. Perfect practice material.


@thedstring (March 01, 2017 at 2:13 PM)

This is kinda wonderful, I'm sad I missed it back when it was submitted