Gametabs
Home
Tabs
Random

Promise

Average rating: 5.000

1 ratings

Composer:

Tabber:

Style:

Instrument:

Created: October 11, 2013 at 12:00 AM

                                    Promise
                                
ef - a fairy tale of the two (VN) or Ef: A Tale of Memories/Melodies (anime)
Tenmon, Eiichiro Yanagi
Guitar arrangement by Basisti94 (Miro Laaksonen)
8.10.2013


Arrangement of Promise from ef. I think VN uses this in title screen.


Tempo ~ 100

     ^                                      ^                
     E  E  E  Q.        E   E  E  Q.        E  E  E  Q.      
E||--3--2------------|-------------------|--3--2------------|
B||--3-----3---------|---------3---------|--3-----3---------|
G||--2--------2------|--0h--2-----2------|--2--------2------|
D||--0---------------|--0----------------|--0---------------|
A||------------------|-------------------|------------------|
E||------------------|-------------------|------------------|


                                        ^                                 
  E   E  E  Q.        Q    Q    Q       H        E  E     Q    Q    Q     
-------------------|------------1----|--0--------------|------------5----|
---------3---------|--3--------------|--1--------1-----|--3--------------|
--0h--2-----2------|------------2----|--0-----------0--|-----------------|
--0----------------|-------3---------|-----------------|-------3---------|
-------------------|--1--------------|--3--------------|--1--------------|
-------------------|-----------------|-----------------|-----------------|


  ^    ^           ^                                      ^                
  Q    H           E  E  E  Q.        E   E  E  Q.        E  E  E  Q.      
--5----3--------|--3--2------------|-------------------|--3--2------------|
--6----5--------|--3-----3---------|---------3---------|--3-----3---------|
--5----5--------|--2--------2------|--0h--2-----2------|--2--------2------|
----------------|--0---------------|--0----------------|--0---------------|
--3----3--------|------------------|-------------------|------------------|
----------------|------------------|-------------------|------------------|


                                        ^                                 
  E   E  E  Q.        Q    Q    Q       Q    Q    Q       Q    Q    Q     
-------------------|------------5----|--3--------------|------------5----|
---------3---------|--3--------------|--5----5---------|--3--------------|
--0h--2-----2------|-----------------|--5---------5----|-------2---------|
--0----------------|-------3---------|-----------------|-----------------|
-------------------|--1--------------|--3--------------|--1--------------|
-------------------|-----------------|-----------------|-----------------|


  ^                                                            
  Q    Q    Q        E   E  E   E  E  E     E  E  E  E  E  E   
--3--------------|--10-------------------|--------------------|
--5----6----5----|------10--8--10--7--8--|--3-----------------|
--5--------------|-----------------------|-----2--0--2-----0--|
-----------------|---0-------------------|--------------4-----|
--3--------------|-----------------------|--------------------|
-----------------|-----------------------|--------------------|


  E  E  E  E  E  E     H        E  E     Q    Q    Q       Q    H         
--------------------|-----------------|-----------------|----------------|
--------------------|-----------------|-----------------|-------1--------|
-----2--0--2-----0--|-----------------|------------2----|--0----0--------|
--------------4-----|-----------0--2--|--3----0---------|----------------|
--5-----------------|--5--------------|--1--------------|--3-------------|
--------------------|-----------------|-----------------|----------------|

		  *
  Q    Q    Q       Q    Q    Q       Q    Q    Q       Q    Q    Q     
-----------------|-----------------|-----------------|-----------------|
------------3----|-----------------|-----------------|-------1---------|
-----------------|-------0----5----|------------2----|--0---------0----|
--3--------------|--7---------L----|--3----0---------|-----------------|
--1----1---------|--3--------------|--1--------------|--3--------------|
-----------------|-----------------|-----------------|-----------------|
                   

  Q    Q    Q       H        Q       Q    Q    Q       Q    Q.     S S  
-----------------|----------------|-----------------|----------------0-|
--3--------------|----------------|-----------------|-------1------3---|
-------0----2----|----------------|--2---------2----|--0----0----------|
--0--------------|--4-------------|-------0---------|------------------|
-----------------|--5--------5----|--1--------------|--3---------------|
-----------------|----------------|-----------------|------------------|


  Q    Q    Q       Q    Q    Q       Q    Q    Q       Q    Q    Q     
--1----0---------|-----------------|-----------------|-----------------|
------------1----|-----------------|-----------------|-------1---------|
-------2---------|--2---------0----|------------2----|--0----0---------|
--0--------------|-------2---------|--3----0---------|------------2----|
-----------------|--3--------------|--1--------------|--3--------------|
-----------------|-----------------|-----------------|-----------------|


                    ^                **                                                 
  Q    Q    Q       H        Q       E  E  E  E  E  E     Q    Q    E  E   
-----------------|----------------|--5--------5-----5--|---------------5--|
-----------------|--3--------3----|-----3--3-----3-----|--3---------3-----|
-----------------|--2-------------|--------------3-----|------------------|
--0--------------|--4-------------|--------3-----------|-------3----------|
------------0----|--5-------------|--1-----------------|--1---------------|
-------3---------|----------------|--------------------|------------------|


  E  E  E  E  E  E     Q    Q    Q       Q    Q    Q       H        Q     
--5--------5-----5--|--3---------3----|--3----2---------|----------------|
-----3--3-----3-----|-----------------|------------3----|----------------|
--------------5-----|------------5----|-------2---------|--2--------0----|
--------5-----------|-------5---------|--0--------------|--0-------------|
--3-----------------|--3--------------|-----------------|----------------|
--------------------|-----------------|-----------------|----------------|


  E  E  E  E  E  E     Q    Q    Q       E  E  E  E  E  E     Q    Q    Q     
--------------------|-----------------|--5--------5-----5--|-----------------|
-----------3--------|-------3---------|-----3--3-----3-----|--3--------------|
-----0--2-----2--0--|-----------------|--------------3-----|------------3----|
--4-----------------|--4--------------|--------3-----------|-------3---------|
--5-----------------|--5---------5----|--1-----------------|--1--------------|
--------------------|-----------------|--------------------|-----------------|


  Q    Q    Q       Q    Q    Q       E  E  E  E  Q       Q    Q    Q     
--3----1----0----|-------0----1----|-----------5--5----|--5--------------|
-----------------|--3--------------|--2--3--5----------|-----------------|
------------0----|------------0----|--------------2----|------------2----|
-------0---------|-------0---------|--------2----------|-------2---------|
-----------------|-----------------|--0----------------|--0--------------|
--3--------------|--3--------------|-------------------|-----------------|


                          ^                                                 
  E   E  E  E  E   E      H.              Q    Q    Q       Q    Q    Q     
---------7-----7--10--|---9------------|-----------------|-----------------|
--9--10---------------|--10------------|--3--------------|--3----3----3----|
------------9---------|---9------------|------------2----|------------2----|
----------------------|---7------------|-------4---------|-------4---------|
--7-------------------|----------------|--5--------------|--5--------------|
----------------------|----------------|-----------------|-----------------|


  E  E  Q    Q       Q    Q    Q       Q    Q    Q       Q    Q    Q     
------------------|-----------------|-----------------|-----------------|
--3--1--1---------|--1---------1----|--3--------------|--3----3----3----|
-------------0----|-------0---------|------------2----|------------2----|
--------2---------|-----------------|-------4---------|-------4---------|
--3---------------|--3--------------|--5--------------|--5--------------|
------------------|-----------------|-----------------|-----------------|


  E  E  Q    Q       Q    Q    Q       E  E  Q    Q       Q    Q    Q     
------------------|-----------------|------------------|-----------------|
--3--1--1---------|------------1----|--1---------------|-----------------|
-------------0----|--0---------0----|-----3--3---------|--L---------3----|
--------2---------|-------2---------|--------3----3----|-------3---------|
--3---------------|--3--------------|--1---------------|--1--------------|
------------------|-----------------|------------------|-----------------|


  E  E  Q    Q       Q    Q    Q       E  E  Q    Q       Q    Q    Q     
------------------|-----------------|------------------|-----------------|
-----1--1---------|------------1----|--1---------------|-----------------|
--3----------0----|-------0---------|-----3--3---------|--L---------3----|
--------2---------|-----------------|--------3----3----|-------3---------|
--3---------------|--3--------------|--1---------------|--1--------------|
------------------|-----------------|------------------|-----------------|


  E  E  Q    Q       Q    Q    Q       Q    Q    Q       Q    Q    Q     
------------------|--3----2----2----|-----------------|-----------------|
-----1--1---------|------------1----|--3--------------|--L--------------|
--3----------0----|-------0---------|------------2----|------------2----|
--------2---------|-----------------|-------4---------|-------4---------|
--3---------------|--3--------------|--5--------------|--5--------------|
------------------|-----------------|-----------------|-----------------|


  Q    Q    Q       Q    Q    Q       H        Q       Q    Q    Q     
--3--------------|--3----2----2----|--2-------------|--L--------------|
-----------------|------------3----|--3-------------|-----------------|
------------2----|-------2---------|-----------2----|--0----2---------|
-------4---------|--0--------------|--0-------------|------------4----|
--5--------------|-----------------|----------------|-----------------|
-----------------|-----------------|----------------|-----------------|


  ^                      
  H.                     
---------------|-------||
--3------------|-------||
--2------------|-------||
--4------------|-------||
--5------------|-------||
---------------|-------||

 * A note is the melody here

 ** Bit of a stretch. Just in case it's hard for someone,
    I use index finger on first fret of A string, 
    barre third fret of D, G, and B string with ring finger and
    pinky on fifth fret of E string.



Duration Legend
---------------
W - whole
H - half
Q - quarter
E - 8th
S - 16th
T - 32nd
X - 64th
. - note dotted
|-n-|  - n-tuplets


Tablature Legend
----------------
L - tied note
x - dead note
g - grace note
(n) - ghost note
> - accentuded note
NH - natural harmonic
AH - artificial harmonic
TH - tapped harmonic
SH - semi harmonic
PH - pitch harmonic
h - hammer on
p - pull off
b - bend
S - shift slide
s - legato slide
/ -  slide into from below or out of upwards
\ -  slide into from above or out of downwards
~ - vibrato
W - wide vibrato
tr - trill
TP - tremolo picking
T - tapping
S - slap
P - pop
< - fade in
^ - brush up
v - brush down

        
Comments

@Spellbound66623 (October 12, 2013 at 7:48 AM)

Although finger style is a bit difficult for me, this is a song worth my struggle XD