Gametabs
Home
Tabs
Random

Title Screen

Average rating: 5.000

2 ratings

Composer:

Tabber:

Style:

Instrument:

Created: January 16, 2010 at 12:00 AM

            
   Ecco the Tides of Time - Title Screen                       

Music: A. Dobos/A. Magyari/D. Javelosa/A. Armer DMP,
Sequenced by Jon King, Tab: Diralark

Solo
     W                     E  E  E  E  E  E  E  E   
E||-------------------||---0-----------0--------0--|
B||-------------------||---------1--------1--------|
G||-------------------||*-----2-----4--------2-----|
D||-------------------||*--------------------------|
A||-------------------||---0-----L-----0-----------|
E||-------------------||---------------------------|


  E  E  E  E  E  E  E  E   3x   E  E  E  E  E  E  E  E   
--1--0--------0--------0---||---0-----------0--------0--|
--------1--------1---------||---------1--------1--------|
-----------2--------2-----*||*-----2-----4--------2-----|
--------------------------*||*--------------2-----2-----|
--------------3------------||---0-----------------------|
--1------------------------||---------------------------|


  E  E  E  E  E  E  E  E       E  E  E  E  E  E  E  E   
--1--0--------0--------0---||-----0-----------------0--|
--------1--------1---------||--------1-----0--1--------|
-----------2--------2-----*||--2--------2--------2-----|
--------------3-----------*||--------------------2-----|
--------------------3------||--0-----------2-----------|
--1------------------------||--------------------------|


  E  E  E  E  E  E  E  S T T    E  E  E  E  E  E  E  E   
-----0--------0--------0-----|-----0--------0--------0--|
--------1--------1-----------|--------1--------1--------|
-----------2--------2--------|-----------2--------2-----|
--3-----------3-----3----2-0-|--2-----------2-----------|
--------------------0--------|--0-----------------0-----|
--1--------------------------|--------------------------|


  E  E  E  E  E  E  E  E     E  E  E  E  E  E  E  E   
--1--0--------0--------0--|--------------------------|
--------1--------1--------|-----4--------4--------4--|
-----------2--------2-----|--4-----4--------4--------|
--------------3-----------|-----------6--------6-----|
--------------------------|--------------------------|
--1-----------------3-----|--4-----------6-----7-----|


  E  E  E  E  E  E  E  E     E  E  E  E  E  E  E  S T T  
--0-----------0--------0--|-----------------------------|
--------0--------0--------|-----3--0--------0--0--3-----|
-----------1--------1-----|--4--------0-----------------|
-----2--------2-----1-----|--0-----------0-----0--------|
--------------------------|-------------------------0-2-|
--0-----------------------|--3-----------3--------------|


  E  E  E  E  E  E  E  E     E  E  E  E  E  E  E  E   
--0-----------------------|--0-----------------------|
-----1--------1--------1--|--------------------------|
--------0--------0--------|--3--3--0-----3--0-----3--|
-----------2--------2-----|-----------2--------2-----|
--3-----------2-----------|--3-----------------------|
--------------------------|--------------------------|


  E  E  E  E  E  E  E  T T T T    E  E  E  E  E  E  E  E   
-------------------------------|--------------------------|
--0--0--------0----------------|-----0--------0--------0--|
--------0--------0-------------|--------------------------|
-----------2--------2----------|--4-----4--1--1--4--1-----|
--2--------------------2-2---2-|--2-----------------------|
-------------------------------|--------------------------|


  E  E  E  E  E  E  E  E     E  E  E  E  E  E  E  E   
--0-----------------------|--0-----------------------|
-----0--------0--------0--|-----0--------0--------0--|
--------0--------0--------|--1-----1--------1--------|
-----------2--------2-----|--0--------2--------2-----|
--------------2-----------|--------------3-----2-----|
--0-----------------------|--------------------------|


    E  E  E  E  E  E  E  E     E  E  E  E  E  E  E  E   4x
|---0-----------0--------0--|--1--0--------0--------0---||
|---------1--------1--------|--------1--------1---------||
|*-----2-----4--------2-----|-----------2--------2-----*||
|*--------------------------|--------------------------*||
|---0-----L-----0-----------|--------------3------------||
|---------------------------|--1------------------------||


                 NH   NH   NH             
  E  E  E  E     E    E    Q              
--------------------------------|-------||
-----------5--<>12--------------|-------||
--------5-----------------------|-------||
-----7--------------<>7---------|-------||
--7----------------------<>7----|-------||
--------------------------------|-------||




Duration Legend
---------------
W - whole
H - half
Q - quarter
E - 8th
S - 16th
T - 32nd
X - 64th
. - note dotted
|-n-|  - n-tuplets


Tablature Legend
----------------
L - tied note
x - dead note
g - grace note
(n) - ghost note
> - accentuded note
NH - natural harmonic
AH - artificial harmonic
TH - tapped harmonic
SH - semi harmonic
PH - pitch harmonic
h - hammer on
p - pull off
b - bend
br - bendRelease
pb - preBend
pbr - preBendRelease
brb - bendReleaseBend
\n/ - tremolo bar dip
\n - tremolo bar dive
-/n - tremolo bar Release up
/n\ - tremolo bar inverted dip
/n - tremolo bar return
-\n - tremolo bar Release down
S - shift slide
s - legato slide
/ -  slide into from below or out of upwards
\ -  slide into from above or out of downwards
~ - vibrato
W - wide vibrato
tr - trill
TP - tremolo picking
T - tapping
S - slap
P - pop
< - fade in
^ - brush up
v - brush down

        
Comments

@pokemaughan (January 16, 2010 at 10:37 PM)

Ahhhh this horrible game..

Good tab. :)


@diralark (January 18, 2010 at 6:15 AM)

Thanks pokemaughan. If u talk about the difficulty of this game, indeed it wasn't a piece of cake..


@punch in chest (May 03, 2010 at 7:26 PM)

no way man ecco II is one of the best sega games made for the genesis. Great work on the tab!