Gametabs
Home
Tabs
Random

You've Come Far, Ness

Average rating: No ratings

Composer:

Tabber:

Style:

Instrument:

Created: June 04, 2013 at 12:00 AM

            You've Come Far, Ness
Earthbound
Composed by Keiichi Suzuki & Hirokazu Tanaka
Tabbed by hslesperance
6/4/13

Guitar - Standard Tuning
Bass - Drop D Tuning (DADG)



Guitar

    Q  Q  Q  Q    E E E E E E E E   E E Q  H      E E Q  H
||--4--4--4--4--|-4-6-4-6-4-6-4-6-|-------------|-----7--------||
||o-------------|-----------------|---5---------|-5-8---------o||
||--------------|-----------------|-6---6-------|--------------||
||--------------|-----------------|-------------|--------------||
||o-------------|-----------------|-------------|-------------o||
||--------------|-----------------|-------------|--------------||


  H    E E Q    H    H      H    H      H    Q  Q
|-------------|-----------|-----------|-------------|
|-8-----------|-6---------|-----------|-------------|
|--------5-8--|------6----|-8---------|------5--7---|
|-------------|-----------|------6----|-7-----------|
|-------------|-----------|-----------|-------------|
|-------------|-----------|-----------|-------------|


  H    H      H    H
|-----------|-----------*|
|-8----7----|-6----5----*|
|-7----7----|-5----5----*|
|-9---------|-----------*|
|-----------|-----------*|
|-----------|-----------*|




Bass

    Q  E. S e e E E   Q  E. S e E E e   Q  Q  e E e E   Q  Q  e E e E
||------------------|-----------------|---------------|-----------------||
||o---------------6-|-----------------|---------------|----------------o||
||o-4--4----4-4-4---|-2--2----2-2-2-1-|-0--0--0-0-0---|-0--0--0-0-0-2--o||
||--------6---------|-------4---------|-------------2-|-----------------||


  Q  E. S E E E E   Q  E. S E E E E   Q  E. S E E E E   Q  Q  Q  Q
|-----------------|-----------------|-----------------|--------------|
|-------------5---|-----------------|-----------------|----------5---|
|---------------6-|-----------------|-------2-------6-|-5--5---------|
|-6--6--1-6-6-----|-4--4--0-4-0-4-0-|-2--2----2-2-6---|-------5------|


  Q  E. S E E Q    Q  Q  H
|----------------|------------*|
|----------------|------------*|
|-3--3----3-3-3--|-3--3--3----*|
|-------5--------|------------*|

H - half
Q - quarter
E - 8th
S - 16th

+ - note tied to previous
. - note dotted

Uncapitalized letters represent notes that are staccato (1/2 duration)

        
Comments

No comments yet