Gametabs
Home
Tabs
Random

Welcome to Saturn Valley

Average rating: 4.000

1 ratings

Composer:

Tabber:

Style:

Instrument:

Created: November 30, 2007 at 12:00 AM

            Welcome to Saturn Valley
Earthbound
Composed by Hirokazu Tanaka and Keiichi Suzuki

11/30/07


Bass
     E  E  E  E  E  E  E  E     S S S S S S S S Q    Q     
G||--------------------------|----------------------------|
D||-----2-----2-----2-----2--|------------------3----2----|
A||--0-----0-----0-----0-----|--3-4-3-4-3-4-3-4-----------|
E||--------------------------|----------------------------|


  Q    Q    Q    Q       Q    Q    Q    E  E     Q    Q    Q    Q     
--2---------2---------|--2---------2----------|--2---------2---------|
-------2---------2----|-------2------------2--|-------2---------2----|
----------------------|-----------------------|----------------------|
----------------------|-----------------------|----------------------|


  Q    Q    Q    Q       Q    Q    Q    Q       Q    Q    Q    E  E   
--2---------2---------|--2---------2---------|--2---------2----------|
-------2--------------|-------2---------2----|-------2------------2--|
----------------------|----------------------|-----------------------|
----------------------|----------------------|-----------------------|


  Q    Q    Q    Q       Q    Q    E  E  Q       Q.     E  Q.     E   
--2---------2---------|--2---------2----------|---------2---------2--|
-------2---------2----|-------2-------2-------|--0---------0---------|
----------------------|------------------0----|----------------------|
----------------------|-----------------------|----------------------|


  Q.     E  Q.     E     E  E  Q    E  E  Q       E  E  E  E  Q    Q     
---------2---------2--|--7-----7----8-----8----|--7-----7----------9----|
--0---------0---------|-----7----------8-------|-----7-----7------------|
----------------------|------------------------|--------------7---------|
----------------------|------------------------|------------------------|


  Q    Q    Q    Q       Q    Q    Q    Q       Q    Q    Q    Q     
--2---------2---------|--2---------2---------|--2---------2---------|
-------2---------2----|-------2--------------|-------2---------2----|
----------------------|----------------------|----------------------|
----------------------|----------------------|----------------------|


  Q    Q    Q    Q       
--2---------2----------||
-------2--------------*||
----------------------*||
-----------------------||




Duration Legend
---------------
W - whole
H - half
Q - quarter
E - 8th
S - 16th
T - 32nd
X - 64th
. - note dotted
|-n-|  - n-tuplets

        
Comments

No comments yet