Gametabs
Home
Tabs
Random

New Age Hippie Theme

Average rating: 4.667

3 ratings

Composer:

Tabber:

Style:

Instrument:

Created: July 28, 2009 at 12:00 AM

            New Age Hippie Theme
Earthbound/ Mother 2
Arranged by Jbryant



Due to the high frets, I would recommend an electric 
guitar for this song. It's pretty much all jazz licks 
and riffs, so id you have experience in that, this 
will be easy
All bends are full unless notated otherwise.


                                            E  E  E
|-------------------------|-------------------------|
|-------------------------|----------------------17-|
|-------------------------|----------------17-18----|
|-------------------------|-------------------------|
|-------------------------|-------------------------|
|-------------------------|-------------------------|

  E  E  E  E  E  E  E  E 
|-17-17-17-17-17----------|-------------------------|
|-17-17-17-17-17-19-17-19-|-17-17-17-17-17-19-17-19-|
|-*-----------------------|-17-17-17-17-17----------|
|-*-----------------------|-------------------------|
|-------------------------|-------------------------|
|-------------------------|-------------------------|
 
  E  E  E  E  E  E  E  E    E  H..
|-17----------17----------|----19b(21)--------------|
|----19-17-19----19-17-19-|-R--19b(20)--------------|
|-------------------------|-E-----------------------|
|-------------------------|-S-----------------------|
|-------------------------|-T-----------------------|
|-------------------------|-------------------------|

  Q     Q     Q     Q       E  E  Q     Q     Q
|-------------------------|-------------------------|
|-15----------15----------|-R--15-------15----------|
|-------17b---------17b---|-E-----17b---------17b---|
|-------------------------|-S-----------------------|
|-------------------------|-T-----------------------|
|-------------------------|-------------------------|

  E  E  E  E  E  E  E  E    E  E  E  E  E  E  E  E
|-17-17-17-17-17-17-17-17-|----20-17----------------|
|-17-17-17-16-17-17-16-17-|-R--------20-17----------|
|-------------------------|-E--------------19-17----|
|-------------------------|-S--------------------19-|
|-------------------------|-T-----------------------|
|-------------------------|-------------------------|

  Q    Q    E  E  E  E      E  E  E  E  E  E  E  E
|-------------------------|-------------------------|
|-------------------------|-R-----------------------|
|-17b--17b--19-19-17------|-E--14-12----------------|
|--------------------19---|-S--------14-13-12-------|
|-------------------------|-T-----------------15-12-|
|-------------------------|-------------------------|

  E  E  E  E  E  E  E  E    E  E  E  E  (H)
|----------17-------------|-------------------------|
|-R-----20----20-17-------|-------------------------|
|-E--19b------------19-17-|-------------------------|
|-S-----------------------|-19----------------------|
|-T-----------------------|----------19-(19)--------|
|-------------------------|-------------------------|

  E  E  E  E  E  E  E  E    E  E  E  E  E  E  E  E 
|-------------------------|-------------------------|
|-------------------------|-------------------------|
|-------------------------|-------------------------|
|-2--2--4--2--2--2--4--2--|-2--2--4--2--5--2--4--2--|
|-0--0--0--0--0--0--0--0--|-0--0--0--0--0--0--0--0--|
|-------------------------|-------------------------|

  E  E  E  E  E  E  E  E    E  E  E  E  E  E  E  E 
|-------------------------|-------------------------|
|-------------------------|-------------------------|
|-------------------------|-------------------------|
|-2--2--4--2--2--2--4--2--|-2--2--4--2--5--2--4--2--|
|-0--0--0--0--0--0--0--0--|-0--0--0--0--0--0--0--0--|
|-------------------------|-------------------------|

  E  E  E  E  E  E  E  E    E  E  E  E  E  E  E  E 
|-------------------------|-------------------------|
|-------------------------|-------------------------|
|-------------------------|-------------------------|
|-7--7--9--7--7--7--9--7--|-7--7--9--7--10-7--9--7--|
|-5--5--5--5--5--5--5--5--|-5--5--5--5--5--5--5--5--|
|-------------------------|-------------------------|

  E  E  E  E  E  E  E  E    E  E  E  E  E  E  E  E 
|-------------------------|-------------------------|
|-------------------------|-------------------------|
|-------------------------|-------------------------|
|-2--2--4--2--2--2--4--2--|-2--2--4--2--5--2--4--2--|
|-0--0--0--0--0--0--0--0--|-0--0--0--0--0--0--0--0--|
|-------------------------|-------------------------|


  E  E  E  E  E  E  E  E    E  E  E  E  E  E  E  E 
|-------------------------|-------------------------|
|-------------------------|-------------------------|
|-------------------------|-------------------------|
|-9--9--11-9--9--9--11-9--|-7--7--9--7--7--7--9--7--|
|-7--7--7--7--7--7--7--7--|-5--5--5--5--5--5--5--5--|
|-------------------------|-------------------------|


  E  E  E  E  E  E  E  E    E  E  E  E  E  E  E  E 
|-------------------------|-------------------------|
|-------------------------|----------------------17-|
|-------------------------|----------------17-18--*-|
|-2--2--4--2--2--2--4--2--|-9--9--9--9--9---------*-|
|-0--0--0--0--0--0--0--0--|-7--7--7--7--7-----------|
|-------------------------|-------------------------|

And of course, repeat to infinity. 

        
Comments

@FancyTealGiraffe (September 02, 2012 at 4:26 PM)

I love this song, and this is probably the best tab for it...ever!