Gametabs
Home
Tabs
Random

Main Theme

Average rating: 4.500

4 ratings

Composer:

Tabber:

Style:

Instrument:

Created: September 17, 2008 at 12:00 AM

            Main Theme
Duke Nukem 3D
Tabbed by TheDoomOfAllFires


Guitar 1

     W                   W                   Q    S S S S E  S S S S E   
E||-------------------|-------------------|-----------------------------|
B||-------------------|-------------------|-----------------------------|
G||-------------------|-------------------|-----------------------------|
D||-------------------|-------------------|-------------4------4---6----|
A||-------------------|-------------------|-------4-7---2----4-2---4----|
E||-------------------|-------------------|-------2-5--------2----------|


  S S S S S S S E  S S S E.  S    E  E  S S S E.  S S S E.   
-------------------------------|----------------------------|
-------------------------------|----------------------------|
-------------------------2---4-|--L--7--6-6---6---6-6---7---|
----6---7-------7--6-4---2---0-|--L--7--------4---------4---|
--4-4---5---4---4--2-0-4-2---0-|--L--7----------------------|
--2---------2----------2-------|-----5----------------------|


  S S S E.  S S S S S E  E  S    S E  E.  S S S S S E  E  S  
------------------------------|-----------------------------|
------------------------------|-----------------------------|
--4-4---4---4-4---4---4-------|-----------6-6---6---7--6--4-|
--4-4---2---2-2---2---2--7--5-|--L-7--4---4-4---4---4--4--2-|
-------------------------5--5-|--L-5--4---------------------|
------------------------------|-----------------------------|


  S E.  S S S S S S S E  S S S    S E.  S S S S E  S S S S E   
-------------------------------|------------------------------|
-------------------------------|------------------------------|
--L-6-------------4---1--------|------------------------------|
--L-4---7-4---7---4---2--2---6-|----7-------------------------|
--------5-2---5----------2---4-|----4-------------------------|
-------------------------------|--------3-3---3----3-3---3----|


  Q    S S S S E  S S S S E     W                   W                 
-----------------------------|-------------------|-------------------|
-----------------------------|-------------------|-------------------|
-----------------------------|-------------------|-------------------|
-----------------------------|-------------------|-------------------|
-----------------------------|-------------------|-------------------|
-------3-3---3----3-3---3----|-------------------|-------------------|


  Q    S S S E.  S S S E.     S S S E.  S S S S S E  E  S  
---------------------------|------------------------------|
---------------------------|------------------------------|
-------6-6---6---6-6---7---|--4-4---4---4-4---4---4-------|
-------------4---------4---|--4-4---2---2-2---2---2--7--5-|
---------------------------|-------------------------5--5-|
---------------------------|------------------------------|


  S E  E.  S S S S S E  E  S    S E.  S S S S S S S E  S S S  
-----------------------------|-------------------------------|
-----------------------------|-------------------------------|
-----------6-6---6---7--6--4-|--L-6-------------4---1--------|
--L-7--4---4-4---4---4--4--2-|--L-4---7-4---7---4---2--2---6-|
--L-5--4---------------------|--------5-2---5----------2---4-|
-----------------------------|-------------------------------|


  S E.  S S S E.  S S S E.     S S S E.  S S S S S E  E  S  
----------------------------|------------------------------|
----------------------------|------------------------------|
------------------------4---|--4-4---4---4-4---4---6--4----|
----7---7-2---7---7-7---2---|--2-2---2---2-2---2---4--2--7-|
----4---5-5---5-------------|----------------------------5-|
----------------------------|------------------------------|


  S E  E.  S S S S S E  E  S    S S S S S S S S S S S E  S S S  
-----------------------------|---------------------------------|
-----------------------------|---------------------------------|
-----------6-6---4---2--1--2-|--L-1---1-2---------4---1--------|
--L-6--7---0-0---0---2--2--2-|--L-2-4---4-4---7---4---2--2---6-|
--L-4--5---------------------|------------5---5----------2---4-|
-----------------------------|---------------------------------|


  S E.  S S S S E  S S S S E     Q    S S S S E  S S S S E   
------------------------------|-----------------------------|
------------------------------|-----------------------------|
------------------------------|-----------------------------|
----7-------------------------|-----------------------------|
----4---4-4---4----4-4---4----|-------4-4---4----4-4---4----|
--------2-2---2----2-2---2----|-------2-2---2----2-2---2----|


  Q    S S S S H          
------------------------||
------------------------||
------------------------||
------------------------||
-------4-4---4----------||
-------2-2---2----------||



Guitar 2

     Q    S S S S E  S S S S E     S S S S S S S E  S S S E.  S  
E||-----------------------------|-------------------------------|
B||-----------------------------|-------------------------------|
G||-----------------------------|-------------------------------|
D||-----------------------------|-------------------------------|
A||-------------2------2---4----|----4---5-------4--2-0---4---5-|
E||-------2-5--------2----------|--2---------2----------2-0---3-|


  S S S S S S S S E  S S S S E     S S S S S S S E  S S S E.  S  
--------------------------------|-------------------------------|
--------------------------------|-------------------------------|
--------------------------------|-------------------------------|
--------------------------------|-------------------------------|
--L-5-4-2---0---2------2---4----|----4---5-------4--2-0---2-----|
--L-------2-0---2----2-2---4----|--2-4---5---2---5--4-2-2-0---5-|


  S S S S S S S S S S S S S S S S    S S S S S S S S S S S S S S S S  
----------------------------------|----------------------------------|
----------------------------------|----------------------------------|
----------------------------------|----------------------------------|
----------------------------------|----------------------------------|
----2-0-2-------------------------|----------------------------------|
--L---0---2-2-2-2-2-2-2-2-2-2-2-2-|--2-2-2-2-2-2-2-2-2-2-2-2-2-2-3-3-|


  S S S S S S S S S S S S S S S S    S S S S S S S S S S S S S S S S  
----------------------------------|----------------------------------|
----------------------------------|----------------------------------|
----------------------------------|----------------------------------|
----------------------------------|----------------------------------|
----------------------------------|------------------------------5-4-|
--2-0-3-3-2-2-2-2-2-2-2-2-2-2-2-2-|--2-2-2-2-2-2-2-2-2-2-2-2-2-2-----|


  S S S S S S S S S S S S S S S S    S S S S S S S S S S S S S S S S  
----------------------------------|----------------------------------|
----------------------------------|----------------------------------|
----------------------------------|----------------------------------|
----------------------------------|----------------------------------|
----------------------------------|----------------------------------|
--2-3-2-2-3-3-3-3-3-3-3-3-3-3-3-3-|--3-3-3-3-3-3-3-3-3-3-3-3-3-3-3-3-|


  S S S S S S S S E  S S S S E     S S S S S S S E  S S S E.  S  
--------------------------------|-------------------------------|
--------------------------------|-------------------------------|
--------------------------------|-------------------------------|
--------------------------------|-------------------------------|
----------------2------2---4----|----4---5-------4--2-----4---5-|
--3-3-3-3-2-5--------2----------|--2---------2--------5-2-0---3-|


  S S S S S S S S S S S S S S S S    S S S S S S S S S S S S S S S S  
----------------------------------|----------------------------------|
----------------------------------|----------------------------------|
----------------------------------|----------------------------------|
----------------------------------|----------------------------------|
--L-5-4-2-------------------------|----------------------------------|
--L-------2-2-2-2-2-2-2-2-2-2-2-2-|--2-2-2-2-2-2-2-2-2-2-2-2-2-2-3-3-|


  S S S S S S S S S S S S S S S S    S S S S S S S S S S S S S S S S  
----------------------------------|----------------------------------|
----------------------------------|----------------------------------|
----------------------------------|----------------------------------|
----------------------------------|----------------------------------|
----------------------------------|------------------------------5-4-|
--2-0-3-3-2-2-2-2-2-2-2-2-2-2-2-2-|--2-2-2-2-2-2-2-2-2-2-2-2-2-2-----|


  S S S S S S S S S S S S S S S S    S S S S S S S S S S S S S S S S  
----------------------------------|----------------------------------|
----------------------------------|----------------------------------|
----------------------------------|----------------------------------|
----------------------------------|--------------------------4-4-2-2-|
----------------------------------|----------------------------------|
--2-3-2-2-2-2-2-2-2-2-2-2-2-2-2-2-|--2-2-2-2-2-2-2-2-2-2-2-2---------|


  S S S S S S S S S S S S S S S S    S S S S S S S S S S S S S S S S  
----------------------------------|----------------------------------|
----------------------------------|----------------------------------|
----------------------------------|----------------------------------|
----------------------------------|------------------------------0---|
--5-5-4-5-------------------------|--------------------------------4-|
----------2-2-2-2-2-2-2-2-2-2-2-2-|--2-2-2-2-2-2-2-2-2-2-2-2-2-2-----|


  S S S S S S S S S S S S S S S S    S S S S S S S S S S S S S S S S  
----------------------------------|----------------------------------|
----------------------------------|----------------------------------|
----------------------------------|----------------------------------|
----------------------------------|----------------------------------|
----------------------------------|----------------------------------|
--2-3-2-2-2-2-2-2-2-2-2-2-2-2-2-2-|--2-2-2-2-2-2-2-2-2-2-2-2-2-2-2-2-|


  S S S S S S S S H          
---------------------------||
---------------------------||
---------------------------||
---------------------------||
---------------------------||
--2-2-2-2-2-2---2----------||

        
Comments

@smiley (February 24, 2009 at 11:51 PM)

Nice tab man!


@Gnome.Punter (January 06, 2010 at 3:58 AM)

the theme song was composed by thrash metal band Megadeth so u can check out their tab aswell if u want to