Gametabs
Home
Tabs
Random

Main Theme

Average rating: No ratings

Composer:

Tabber:

Style:

Instrument:

Created: November 04, 2007 at 12:00 AM

            
                              Game: Duck Tales
                          Stage: Main Stage - Bass 
                   Tabbed by: Erik Lundmark, Nicklas Engberg

                                   NOTE!!! 
         Sometimes you must ignore the timing! Just listen to the song! 

CONTACT:

www.myspace.com/iceclimbersrocks

[email protected]

G-|--9---9---9-----9-|-------14----14-----------------11---11-----------------
D-|------------------|x4---------------------------------------9--9-----------
A-|7---7---7---7-7---|----12----12----12--12-11-10--9----9----------12-11-----
E-|------------------|--------------------------------------------------------
      
                                                                        
G---11---11------------|---9---9---9-----9----5---5---7---7-|------9---9------
D-----------9--9-------|------------------------------------|x2---------------
A-9----9---------12-11-|-7---7---7---7-7----3---3---5---5---|----7---7---7-9--
E----------------------|------------------------------------|-----------------

                                                                              
G------------------------------6-6-6-6----------------------------------------
D-6-9--7---6-6----------------------------------------------------------------
A--------9------5-5--7-7--4-4-------------------------------------------------
E-----------------------------------------------------------------------------

                                                                              
G-|---11---11---11-----11---7---7---9---9-|-----11---11-----------------------
D-|---------------------------------------|x3---------------------------------
A-|-9----9----9----9-9----5---5---7---7---|---9----9------9-------------------
E-|---------------------------------------|-----------------------------------

        
Comments

No comments yet