Gametabs
Home
Tabs
Random

Night in the Forest

Average rating: 5.000

1 ratings

Composer:

Tabber:

Style:

Instrument:

Created: June 25, 2013 at 12:00 AM

            Night in the Forest (Earth-Nightime)
Drakkhen
Composed by Hiroyuki Masuno
Tabbed by Bacardi
6/22/13

Lead

e|--12~-----10------10--12~--|--10----------10~--|----------------------|
B|--------------13-----------|------13--12-------|----13--12------10~---|
G|---------------------------|-------------------|------------12--------|
D|---------------------------|-------------------|----------------------|
A|---------------------------|-------------------|----------------------|
E|---------------------------|-------------------|----------------------| 

e|---------------------------|-------------------------------|
B|---------------------------|-------------------------------|
G|--12--9--10--9-------------|---------------9---------------|
D|---------------------------|---9--10--12-------------------|
A|-----------------12--12----|---------------------10--10----|
E|---------------------------|-------------------------------| 

e|-----12~-----10------10--12~--|--10----------10~--|----------------------|
B|-----------------13-----------|------13--12-------|----13--12------10~---|
G|--9---------------------------|-------------------|------------12--------|
D|------------------------------|-------------------|----------------------|
A|------------------------------|-------------------|----------------------|
E|------------------------------|-------------------|----------------------| 

e|---------------------------|-------------------------------|
B|---------------------------|-------------------------------|
G|--12--9--10--9-------------|---------------9---------------|
D|---------------------------|---9--10--12-------------------|
A|-----------------12--12----|---------------------10--10----|
E|---------------------------|-------------------------------| 

e|-------------------------|------------------|---------------------|
B|-------------------------|------------------|---------------------|
G|------------9--10--------|-------------9~---|----------------9~---|
D|--10----12---------------|--9--10--12-------|---12--10--12--------|
A|--------------------12~--|------------------|---------------------|
E|-------------------------|------------------|---------------------|

e|-----8~------7------7--8~--|--10--12--13--12~--|--10--------10--12~--|
B|----------------10---------|-------------------|-------13------------|
G|--9------------------------|-------------------|---------------------|
D|---------------------------|-------------------|---------------------|
A|---------------------------|-------------------|---------------------|
E|---------------------------|-------------------|---------------------|

e|--12----12---|--13--12--13----12--|--13--12--13----12--|--10------10--12---|
B|-------------|--------------------|--------------------|------13-----------|
G|-------------|--------------------|--------------------|-------------------|
D|-------------|--------------------|--------------------|-------------------|
A|-------------|--------------------|--------------------|-------------------|
E|-------------|--------------------|--------------------|-------------------|

e|--12---13---15~---|---17--15--13----15~--|--13--12--10--12--|--10------------10------12-----|
B|------------------|----------------------|------------------|---------13--------------------|
G|------------------|----------------------|------------------|-------------------------------|
D|------------------|----------------------|------------------|-------------------------------|
A|------------------|----------------------|------------------|-------------------------------|
E|------------------|----------------------|------------------|-------------------------------|

Repeat Forever!


        
Comments

No comments yet