Gametabs
Home
Tabs
Random

Town

Average rating: 5.000

1 ratings

Composer:

Tabber:

Style:

Instrument:

Created: November 07, 2009 at 12:00 AM

                               Dragon's Curse - Town GUITAR TAB
                       Song by Shinichi Sakamoto

               Tabbed by auriplane ([email protected])



Three guitars, all in standard tuning.  I also made a bass tab for this
song a while back.  
                                                                S S
                                                              e ----|
                                                              B ----|
                                                              G 5-7-|
                         FIRST GUITAR (MELODY)                D ----| 
                                                              A ----|
                                                              E ----|

   Q       E   E   E   E   E   E    E   E   E   E   E   E   E   E
e |--------------------------------|--------------------------------|
B |5---------------------------8---|6---5-------5-------------------|
G |--------7---5---7---------------|--------7-----------7---5---7---|
D |--------------------5-----------|--------------------------------|
A |--------------------------------|--------------------------------|
E |--------------------------------|--------------------------------|

   Q       E   E   E   E   E   E    E   E   E   E   Q.          S S
e |--------------------------------|--------------------------------|
B |5---------------------------8---|6---5---------------------------|
G |--------7---5---7---------------|--------7---5---------------5-7-|
D |--------------------5-----------|--------------------------------|
A |--------------------------------|--------------------------------|
E |--------------------------------|--------------------------------|

   Q       E   E   E   E   E   E    E   E   E   E   E   E   E   E
e |--------------------------------|--------------------------------|
B |5---------------------------8---|6---5-------5-------------------|
G |--------7---5---7---------------|--------7-----------7---5---7---|
D |--------------------5-----------|--------------------------------|
A |--------------------------------|--------------------------------|
E |--------------------------------|--------------------------------|

   Q       E   E   E   E   E   E    E   E   E   E   H
e |--------------------------------|--------------------------------|
B |5---------------------------8---|6---5---------------------------|
G |--------7---5---7---------------|--------7---5-------------------|
D |--------------------5-----------|--------------------------------|
A |--------------------------------|--------------------------------|
E |--------------------------------|--------------------------------|

   E   E   E   E   E   E   E   E    S S S S E   E   E   E   E   E
e |--------3-----------3-----------|--------------------------------|
B |----3-----------3-------6---4---|5-3-5-3-5---3---5---3-------3---|
G |4-----------4-------------------|------------------------5-------|
D |--------------------------------|--------------------------------|
A |--------------------------------|--------------------------------|
E |--------------------------------|--------------------------------|

   E   E   E   E   E   E   E   E    Q       Q       Q       E   E
e |--------3-----------3-----------|--------5---------------8---7---|
B |----3-----------3-------6---3---|5---------------5---------------|
G |4-----------4-------------------|--------------------------------|
D |--------------------------------|--------------------------------|
A |--------------------------------|--------------------------------|
E |--------------------------------|--------------------------------|

   E   E   E   E   E   E   E   E    S S S S E   E   E   E   E   E
e |--------3-----------3-----------|--------------------------------|
B |----3-----------3-------6---3---|5-3-5-3-5---3---5---3-------3---|
G |4-----------4-------------------|------------------------5-------|
D |--------------------------------|--------------------------------|
A |--------------------------------|--------------------------------|
E |--------------------------------|--------------------------------|

   S S S S E   E   Q       Q        H.                      E   S S
e |--------------------------------|--------------------------------|
B |6-5-6-5-6-----------------------|--------------------------------|
G |------------5---4-------7-------|5---------------------------5-7-|
D |--------------------------------|--------------------------------|
A |--------------------------------|--------------------------------|
E |--------------------------------|--------------------------------|




                          SECOND GUITAR (HARMONY)

   H               H                H               H
e |--------------------------------|--------------------------------|
B |1---------------0---------------|--------------------------------|
G |--------------------------------|2---------------0---------------| x4
D |--------------------------------|--------------------------------| 
A |--------------------------------|--------------------------------|
E |--------------------------------|--------------------------------|

   E   E   E   E   E   E   E   E    S S S S E   E   E   E   E   E
e |--------------------------------|--------------------------------|
B |--------3-----------3-----------|------------0---1---0-------0---|
G |----4-----------4-----------4---|2-1-2-1-2---------------2-------|
D |5-----------5-----------5-------|--------------------------------|
A |--------------------------------|--------------------------------|
E |--------------------------------|--------------------------------|

   E   E   E   E   E   E   E   E    Q       Q       Q       E   E
e |--------------------------------|--------------------------------|
B |--------3-----------3-----------|--------1-----------------------|
G |----4-----------4-----------4---|2---------------2-----------2---|
D |5-----------5-----------5-------|------------------------2-------|
A |--------------------------------|--------------------------------|
E |--------------------------------|--------------------------------|

   E   E   E   E   E   E   E   E    S S S S E   E   E   E   E   E
e |--------------------------------|--------------------------------|
B |--------3-----------3-----------|------------0---1---0-------0---|
G |----4-----------4-----------4---|2-1-2-1-2---------------2-------|
D |5-----------5-----------5-------|--------------------------------|
A |--------------------------------|--------------------------------|
E |--------------------------------|--------------------------------|

   Q       Q       Q       Q        W
e |--------------------------------|--------------------------------|
B |--------------------------------|--------------------------------|
G |--------2-------0---------------|--------------------------------|
D |3-----------------------3-------|2-------------------------------|
A |--------------------------------|--------------------------------|
E |--------------------------------|--------------------------------|




                          THIRD GUITAR (RHYTHM)

   E   S S S S S S E   S S S S S S  E   S S S S S S S S S S S S S S
e |----------0---------------3-----|----------1-------0-------0-----|
B |------1-------1-------0-------0-|------1-------1-------1-------1-|
G |----0-------0-------0-------0---|----2-------2-------0-------0---| x4
D |--------2-----------------------|3-------------------------------| 
A |3-----------------------2-------|--------3-------3---------------|
E |----------------3---------------|------------------------3-------|

   E   S S S S S S E   S S S S S S  S S S S E   S S S S S S E   S S
e |----------3---------------3-----|--0---------------0-------------|
B |--------------3---------------3-|------1-------1-------1-------1-|
G |------4-----4---------4-----4---|----2-------2-------2-------2---| x3
D |----5---------------5-----------|--------2---------------2-------|
A |--------5---------------5-------|0---------------0---------------|
E |3---------------3---------------|--------------------------------|

   E   S S S S S S E   S S S S S S  E   S S S S S S E   E   E   E   
e |----------1---------------3-----|----------0---------------------|
B |------1-------1-------3-------3-|------1-------1-----------------|
G |----2---------------4-------4---|----0-------0-------------------|
D |3-----------3-------------------|--------------------------------|
A |--------3---------------5-------|3---------------3-------0---2---|
E |----------------3---------------|--------3-----------3-----------|



        
Comments

No comments yet