Gametabs
Home
Tabs
Random

World of the Sky

Average rating: 5.000

1 ratings

Composer:

Tabber:

Style:

Instrument:

Created: August 24, 2014 at 12:00 AM

            Game:     Dragon Quest Monsters 2
Track:    World of the Sky
Composer: Koichi Sugiyama
Tabber:   K0HIJIN (Johnathan Corkery)
[Standard Tuning]





 
   H           Q.       E    Q.       E  Q.      S S   Q.      S S Q.       E 
||-------------------------|-0--------7--7-------5-7-|-2-----------0-----------|
||----------------------0--|-0-----------5-----------|-3-------5-3-0--------0--|
||-------------------------|-0-----------5-----------|-4-----------0-----------|
||-2-----------------------|-2-----------7-----------|-------------2-----------|
||-------------2-----------|-2-----------------------|-------------2-----------|
||-------------------------|-0-----------------------|-------------0-----------|

   Q.       E  Q.      S S   Q.      S S H             E  E  E  E  H
||----------5--5-----------|-------------0-----------|-0--------0--5-----------|
||-1-----------5-------5-7-|-3-------0-3-0-----------|-1--1--3-----7-----------|
||-2-----------5-----------|-4-----------0-----------|-2-----------7-----------|
||-2-----------4-----------|-4-----------2-----------|-2-----------0-----------|
||-0-----------------------|-------------2-----------|-0-----------------------|
||-------------------------|-------------0-----------|-------------------------|

   T   T   T   Q.        E   E  E  E  E  H             T   T   T   H
||-2---3---2---0-----------|-5-----------------------|-2-----------0 ----------|
||-3-----------0---------0-|-5-----------5-----------|-3---0---3---0-----------|
||-4-----------0-----------|-5-----4--5--5-----------|-4-----------1-----------|
||-5-----------2-----------|-4--7--------3-----------|-4-----------2-----------|
||-------------3-----------|-------------------------|-------------2-----------|
||-------------------------|-------------------------|-------------0-----------|


   Q     E  E  Q     E  E    S S S S Q    Q    E  E    Q     E  E  Q     E  E
||-------1--3--5-----3--1--|-0-1-0-1-3----L----0-----|----------0--1-----0-----|
||-1-----------------------|----------------------1--|-------3--------------3--|
||-2-----------------------|-------------------------|-------------------------|
||-3-----------------------|-------------------------|-------------------------|
||-------------------------|-3-----------------------|-2-----------------------|
||-------------3-----------|--------------1----------|-------------0-----------|

   S S S S Q    Q    E  E    Q.      S S Q.      S S   E  E  E  E  E  E  E  E 
||-------------------2--4--|-5-------4-2-4-------2-0-|-2--0--------------------|
||-1-0-1-3-5----L----------|-------------------------|-------3--2--2-----------|
||-------------------------|-------------------------|-------------------1--2--|
||-------------------------|-------------------------|-------------0--4--------|
||-0-----------------------|-2-------2---------------|-0--------0--------------|
||--------------2----------|-------------0-----------|-------------------------|

   Q.      S S Q.      S S   E  E  E  E  E  E  E  E    H.                Q       W
||-------------------------|-------------------5-----|-7-----------------L-----|-L-----------------------|
||-------------------------|----------5--7--9-----7--|-------------------------|-------------------------|
||-4-------3-4-6-------4-6-|-7--6--7-----------------|-------------------------|-------------------------|
||-------------------------|-------------------------|-7-----------------------|-6-----------------------|
||-------------4-----------|-5--------5--6-----------|-7-----------------------|-------------------------|
||-4-----------------------|-------------------------|-------------------7-----|-0-----------------------|



        
Comments

No comments yet