Gametabs
Home
Tabs
Random

Mysterious Shrine

Average rating: No ratings

Composer:

Tabber:

Style:

Instrument:

Created: March 15, 2010 at 12:00 AM

            Dragon Quest IV
Mysterious Shrine
composed by Koichi Sugiyama
tabbed by musenji, 2007, 2010



Standard Tuning.

This pretty much has to be on an electric guitar,
even though it's classical style.  Generally let
notes ring as long as they can.  I've still marked
a few.


* = harmonic
rit. = ritardando (slowing)
L = let ring


Some of the fingering is pretty hilarious, but it
is possible to play the whole thing smoothly.  Any
questions, feel free to ask, or watch the video,
which I'll be making soon.




|-7-----8-10-12----10----|------------12----------|
|---------------------13-|12----13-15-------12----|
|-9----------10----------|12----------14----------|
|10----------12----------|14----------15----------|
|------------------------|------------------------|
|------------------------|------------------------|


|10-----8-7--------------|-0-----------0----------|
|------------10-----9-12-|10----10----------------|
|10-----------9----------|------------14-L--------|
|-9-----------9----------|12----------11-12-11-12-|
|------------------------|---------------14-12-14-|
|------------------------|------------------------|


|17----------15----13-12-|13----13----13----------|
|------17----13----------|13----12-10-12----------|
|---------------14-------|12*---L-----L------L-10-|
|14----------12----------|------------------------|
|16----------------------|------------------------|
|------------------------|------------------------|


|15----------12----------|------------------------|
|13----13----10----15-13-|12----12----12----------|
|------12----11-12-14----|14----13-11-13----------|
|14----------------16----|14----14----L------L-12-|
|------------------------|------------------------|
|------------------------|------------------------|


|17----------15----13-12-|13----13----13----------|
|------17----13----------|13----12-10-12----------|
|---------------14-------|12*---L-----L------L-10-|
|14----------12----------|------------------------|
|16----------------------|------------------------|
|------------------------|------------------------|


|15----------12----------|------------------------|
|13----13----10----15-13-|13----12----10----12----|
|------12----11-12-14----|---12*---L-----L-----10-|
|14----------------16----|12*---------------------|
|------------------------|------------------------|
|------------------------|------------------------|


|-7-----8-10-12----10----|------------12----------|
|---------------------13-|12----13-15-------12----|
|-9----------10----------|12----------14----------|
|10----------12----------|14----------15----------|
|------------------------|------------------------|
|------------------------|------------------------|

                 rit.
|10-----8-7--------------|------------------------|
|------------10-----9-12-|10----10----10----------|
|10-----------9----------|-9-----9-----9----------|
|-9-----------9-------12-|-L-----9----11----------|
|------------------------|------------------------|
|------------------------|------------------------|






This was the original tab -- just the accompaniment.


--------------------|----------------------------
-5----6----8----10--|-6----5----5----5-3-2-3-----
-5----7----9----10--|-4----4----7----6-4-2-4-----
--------------------|----------------------------
--------------------|----------------------------
--------------------|----------------------------

-----8-5--8--7-5-7----|-8------5-----------------
-5--------8--L------6-|----8---787--10--9-7-9----
-6---7----------------|-9------------9--L------7-
----------------------|--------------------------
----------------------|--------------------------
----------------------|--------------------------

-----8-5--8--7-5-7----|-8------5-----------------
-5--------8--L------6-|----8---787-----8---L---6-
-6---7----------------|-9------------7---L-------
----------------------|--------------------------
----------------------|--------------------------
----------------------|--------------------------

-----------------|--------------------
-5---6---8---10--|-6---5---5--5--5----
-5---7---9---10--|-4---4---7--4--6----
-----------------|--------------------
-----------------|--------------------
-----------------|--------------------
        
Comments

@musenji (March 16, 2010 at 4:08 AM)

It's a pretty small error but the last line should read

|10-----8-7--------------|------------------------|
|------------10-----9-12-|10----10----10----------|
|10-----------9----------|-9-----9-----9----------|
|-9-----------9-------12-|-L-----9----11----------|
|------------------------|------------------------|
|------------------------|------------------------|

with a corresponding change in the second tab as well.