Gametabs
Home
Tabs
Random

Town

Average rating: 5.000

2 ratings

Composer:

Tabber:

Style:

Instrument:

Created: February 26, 2010 at 12:00 AM

            Dragon Warrior
Town
composed by Koichi Sugiyama
tabbed by musenji, 2006


Accompaniment:


|------1---------|------3---------|----------------|------------6-8-|
|----1---------3-|----3-----3---3-|--1---1---------|--1-------------|
|--2-------2-5---|--3-------------|----3-----0---0-|------5---8-----|
|3-------4-------|5-------4---3---|2-----------2---|3---5---7-------|
|----------------|----------------|--------3-------|----------------|
|----------------|----------------|----------------|----------------|

***                                 (ending 1, back to ***)
|10----------8-6-|----------------|----------------|------------6-8-|
|----------------|----------------|0---3---0---1-3-|1---3---5-------|
|---------7------|--------5-------|----------------|----------------|
|-------8--------|------7---------|----------------|----------------|
|---888----------|--888-----------|----------------|----------------|
|----------------|8---------------|----------------|----------------|

				    (ending 2)
				  |--------------0-|1---------------|
				  |------0-1-2-3---|----1-----------|
				  |--0-1-----------|--------2-------|
				  |3---------------|----------------|
				  |----------------|----------------|
				  |----------------|----------------|


Melody:   (does not denote exact rhythms within measures)

-------|---13-12-10-------10----|-------------------------|
-10-11-|13----------13-------10-|11--------------------10-|
-------|------------------------|-------------------12----|
-------|------------------------|-------------------------|
-------|------------------------|-------------------------|
-------|------------------------|-------------------------|


       |---12-10----------------|-------------------10-12-|
       |11-------13-13-11----11-|10--11--13---------------|
       |------------------12----|-------------------------|
       |------------------------|-------------------------|
       |------------------------|-------------------------|
       |------------------------|-------------------------|
       |------------------------|-------------------------|


        ***
       |13-----------10--13--12-10-|------------------13--------|
       |---11-11-11----------------|13--10-10-10--13------13-11-|
       |---------------------------|----------------------------|
       |---------------------------|----------------------------|
       |---------------------------|----------------------------|
       |---------------------------|----------------------------|

        (ending 1)                        (back to ***)
       |-----------------13--|12h13-10h12--------10-12-|
       |10--------10---------|------------13-----------|
       |-------10----12------|-------------------------|
       |---------------------|-------------------------|
       |---------------------|-------------------------|
       |---------------------|-------------------------|

        (ending 2)
       |---------10-------------|---------------------|     The last two notes
       |10-11-12----13-11-10----|10-------------10-11-| <-- are the pickups, if
       |---------------------12-|----12--10-----------|     you intend to repeat
       |------------------------|---------------------|     the whole piece.
       |------------------------|---------------------|
       |------------------------|---------------------|

        
Comments

@diralark (February 26, 2010 at 5:20 PM)

It sounds great