Gametabs
Home
Tabs
Random

We Gotta Power

Average rating: No ratings

Composer:

Tabber:

Style:

Instrument:

Created: February 23, 2016 at 12:00 AM

            EADGBE

If tab stay irregular sorry. 
I recorded this video, its correct = www.youtube.com/watch?v=ePxRiEHDMq4

Thanks.

------0-0---0-------0---3-2---0-----------0---0---------3-2-0-2---0-2~0-7-7---5-----5--
----3---0---0-------0---3-3---3-----3---3---------------------------3-----0---3-----3--
--4---------0-----------2-2---2-----2---0---------------------------------0---2-----2--
------------------------0-0-0-0-0-0-0-0---------------------------------------0-0-0-0-0
----------------------------------------3-3-3-3-3-3-3-3-3-3-3-3-3-3-3------------------
------0-0-0-0-0-0-0-0-0-------------------------------------------------3-3-0----------



-3-----2-----------0---0-------------------------0-----0-----0---3-2---0-----------0---
-5-----3-----3---3-----------------------------0-0-----0-----0---3-3---3-----3---3-----
-5-----2-----2-------------------4-7-4-3\-2--2---------0-----0---2-2---2-----2---0-----
-------0-0-0-0-0-------------------------------------------------0-0-0-0-0-0-0-0-------
-3-3-0---------------------------------------------------------------------------3-3-3-
-----------------0-0-0-0-0-0-0-0-----------------0-0-0-0-0-0-0-0-----------------------



---0-------3-2-0-2---0-2~0-7-7---5-----5---3-----2-----------0---0-----x-----x---------7-----5-----10--
-----------------------3-----0---3-----3---5-----3-----3---3-----------x-----x--0-0-0--0-----------7---
-----------------------------0---2-----2---5-----2-----2---------------4/7---7--2-2-2--0-----------7---
---------------------------------0-0-0-0-0-------0-0-0-0-0-------------x-----x--1-1-1--------------0-0-
-3-3-3-3-3-3-3-3-3-3-3-3-------------------3-3-0-----------------------2/5---5--2-2-2--3-3-3-3-3-------
---------------------------3-3-0---------------------------0-0-0-0-0-0-x-----x-------------------0-----



---8-----7-------7-----------5-7-----------------7-----5-----10--8---7--------5-7---7---
---7-----7---10--0-------------7-----------------0-----------7---7---7---10---0-0---0---
---7-----7-------0-------------8-----------------0-----------7---7---7--------0-0---0---
-0-0-0-0-0-0-0-0---------------------------------------------0-0-0-0-0-0-0-0-----------
-------------------------------------------------3-3-3-3-3-----------------------------
-----------------3-3-3-3-3-3-3-7-7-7-7-7-7-7-7-0-----------0-----------------3-3-3-3-3-



-7--7--8-7--7---7-10--3-------2-------0---------------x----x--x--x---x--/\/-----3-------2
-0--0----------8------5-------3-------1-------3-------x----x--x--x---x--xxx-----5-------3
-0--0---------9-------------------------------4-------7/9--9--9--7\4-4--444--------------
------------------------------------------------------x----x--x--x---x--xxx--------------
------------------------------------------------------5/7--7--7--5\2-2--222--------------
-3--3-----------------0-0-0-0-0-0-0-0-0-0-0-0-0-0-0-0-0----0--0--0---0--000--0--0-0-0-0-0



-------0---------------------x------------------0-2-3-3---0-----0---3-3---0---------2-2
-------1-------3-------------x------------------------------------------------------3-3
---------------4-------4-4---4/7---0--------0-------0-----0-----0---0-----0------------
-----------------------------x-----2----------4-2-----------------------------------0-0
-----------------------2-2---2/5---2--2-5-2---------3-3-3-3-3-3-3-3-3-3-3-3-3-3-3-0----
-0-0-0-0-0-0-0-0-0-0-0-------x-----0---------------------------------------------------



-------------2-2-------------3-------2-------0---------------x---x-x-x--
---3---------------3---------5-------3-------1-------3-------x---x-x-x--
---4---------2-2---2---------------------------------4-------4/5-5-5-7--
-0-0-0-0-0-0-------------------------------------------------x---x-x-x--
-------------2-2-2-2-2-2-2-----------------------------------2/3-3-3-5--
---------------------------0-0-0-0-0-0-0-0-0-0-0-0-0-0-0-0-0-x---x-x-x--



-x-x-----------2---3-------------------------------------------------------------------
-x-x-0--0--0---3---0-------------------------------------------------------------------
-7-7-2--2--2---------------------------------------------------------------------------
-x-x-1--1--1---------------------------------------------------------------------------
-5-5-2--2--2---------------------------------------------------------------------------
-x-x-x--x--x---------------------------------------------------------------------------



Saved : Tue Feb 23 22:54:41 GMT-0300 2016
        
Comments

No comments yet