Gametabs
Home
Tabs
Random

We Gotta Power

Average rating: 5.000

4 ratings

Composer:

Tabber:

Style:

Instrument:

Created: January 29, 2012 at 12:00 AM

            We Gotta Power                                  
Drangon Ball Z
Second  Opening
Hironobu Kageyama


     H        H           H        H         
E||--------------------|--------------------|
B||--------------------|--------------------|
G||-----------7--------|--5--------4--------|
D||--5-----------------|--------------------|
A||-----------5--------|--3--------2--------|
E||--3-----------------|--------------------|


  |--3--|  |----3----|    |----3----|       3     3    3       3     
  E  E  E  Q    Q    Q    Q    Q    Q       Q     Q    Q.      Q     
-----------3---------3----5----3----5----|--7----------7------10----|
--3--3--3--3----3----3----3----3----3----|--8----10----8------10----|
--4--4--4-------4------------------------|--------7-----------------|
-----------------------------------------|--------------------------|
-----------------------------------------|--------------------------|
-----------------------------------------|--------------------------|


                                                  ^  v  ^  v       ^     ^   
                                                  |--3--|                    
   Q     Q    Q    Q       Q    Q    Q    Q       E  E  E  Q    E  E  E  E   
--10--------------------|----------------------|--3--3--3--3-------3-----3--|
--10--------------------|----------------------|--3--3--3--3-------3-----3--|
--11--------------------|----------------------|--0--0--0--0-------0-----0--|
--12----10----9----7----|--5----4----2----0----|--0--0--0--0-------0-----0--|
------------------------|----------------------|--2--2--2--2-------2-----2--|
------------------------|----------------------|--3--3--3--3-------3-----3--|


  v  ^  v  ^         ^  v  ^     v  ^  v  v       ^     ^   
  |--3--|            |--3--|     |--3--|                    
  E  E  E  Q    Q    E  E  E     E  E  E  Q    E  E  E  E   
--3--3--3--3---------3--3--3--|--3--3--3--3-------3-----3--|
--3--3--3--3---------3--3--3--|--3--3--3--3-------3-----3--|
--0--0--0--0---------0--0--0--|--0--0--0--0-------0-----0--|
--0--0--0--0---------0--0--0--|--0--0--0--0-------0-----0--|
--2--2--2--2---------2--2--2--|--2--2--2--2-------2-----2--|
--3--3--3--3---------3--3--3--|--3--3--3--3-------3-----3--|


  v  ^  v  ^                                                                   
  |--3--|            |--3--|                                                   
  E  E  E  Q    Q    E  E  E     Q.     S S Q.     S S    Q.     S S H         
--3--3--3--3------------------|------------------------|--0--------0-1--------|
--3--3--3--3------------------|--1------0-1-3------1-3-|--0------3-0-1--------|
--0--0--0--0---------0--0--0--|--0------0-0-2------0-2-|---------2------------|
--0--0--0--0---------0--0--0--|------------------------|----------------------|
--2--2--2--2---------2--2--2--|------------------------|----------------------|
--3--3--3--3------------------|------------------------|----------------------|


  |--3-|  |----3---|                                  
  Q    E  H        Q    E  E     Q    H        E  E   
------------------------------|----------------------|
--1----1--1--------L----L--1--|--3-------------------|
--0----0--0--------L----L--0--|--2-------------------|
------------------------------|--0-------------0--0--|
------------------------------|----------------------|
------------------------------|----------------------|


    E  E  E  E  E  E  E  E     E  E  E  E  E  E  E  E   
|---------------------------|--------------------------|
|---------------------------|--------------------------|
|*--------------------------|--------------------------|
|*--2--2-----2--------L-----|--4--5-----4-----0--------|
|---------------------------|--5--5--5--5--5--5--5--5--|
|---0--0--0--0--0--0--0--0--|--------------------------|


  E  E  E  E  E  E  E  E     E  E  E  E  E  E  E  E     E  Q    E  E  E  E  E   
--------------------------|--------------------------|-------------------------|
--------------------------|--1--0-----0--------------|-------------------------|
--------------------------|--------2-----------------|--4--4----2-----2-----0--|
--0--2-----2-----------L--|--------------------2--2--|----------0--0--0--0--0--|
--3--3--3--3--3--3--3--3--|--3--3--3--3--3--3--3--3--|-------------------------|
--------------------------|--------------------------|--3----------------------|


  E  Q    E  E  E  E  E     E  E  E  E  E  E  E  E   
-------------------------|--------------------------|
-------------------------|--------------------------|
--L--0-------------------|--------------------------|
----------4-----0--------|--0--2-----2-----------L--|
--3-------5--5--5--5--5--|--------------------------|
-------------------------|--0--0--0--0--0--0--0--0--|

1-------------------------    2---------------------
  E  E  E  E  E  E  E  E       E  E  E  H        E     E  E  E  E  E  E  E  E   
---------------------------||-----3-----3-----------|--------------------------|
---------------------------||-----3-----3-----------|--0-----------------3-----|
--------------------------*||-----1-----1-----------|-----------2--------------|
-----0--------------0--0--*||-----2-----2-----------|-----------------------0--|
--2-----2--1-----0---------||-----------------------|--3--3--3--3--3--3--3-----|
-----------------------3---||-----------------------|--------------------------|


  E  E  E  E  E  E  E  E     E  E  E  E  E  E  E  E   
--------------------------|--------------------------|
--L--1--------0-----------|--0--------------------0--|
--------------------2-----|-----------------0--2-----|
--L--0--0--0--0--0--0--0--|--------------------------|
--------------------------|--------------------------|
--------------------------|--3--3--3--3--3--3--3--3--|


  E  E  E  E  E  E  E  E     E  E  E  E  E  E  E  E   
--------------------------|--------------------------|
--L-----------------L-----|--0-----------------3-----|
--------------------------|-----------2--------------|
--------------------------|-----------------------0--|
--2--2--2--2--2--2--2--2--|--3--3--3--3--3--3--3-----|
--------------------------|--------------------------|


  E  E  E  E  E  E  E  E     E  E  E  E  E  E  E  E   
--------------------------|--------------------------|
--L--1--------0-----------|--0--0-----0--------0--0--|
--------------------2-----|--------------------------|
--L--0--0--0--0--0--0--0--|--------------------------|
--------------------------|--------------------------|
--------------------------|--3--3--3--3--3--3--3--3--|


                  |--3--|                                
  E  E  E  Q.     E  E  E       E  E  E  E  E  E  E  E   
---------------------------||---3-----------2-----------|
---------------------------||---------------------------|
--5--4-----4------L-----4--||*--------------------------|
--4--4-----4------L--4-----||*--------------------------|
--2--2-----2------2--------||---------------------------|
---------------------------||---0--0--0--0--0--0--0--0--|


  E  E  E  E  E  E  E  E     E  E  E  H        E     E  E  E  H        E   
--0-----------------------|-----------------------|-----------------------|
--------------3-----------|--3--5-----5--------L--|--3--------------------|
--------------------------|-----------------------|-----4-----4--------L--|
--------------------------|--0--2-----2--------L--|--2--------------------|
--------------------------|-----------------------|-----2-----2--------L--|
--0--0--0--0--0--0--0--0--|-----------------------|-----------------------|


  E  E  E  E  E  E  E  E     E  E  E  E  E  E  E  E   
--3-----------2-----------|--0-----------------------|
--------------------------|--------------3-----------|
--------------------------|--------------------------|
--------------------------|--------------------------|
--------------------------|--------------------------|
--0--0--0--0--0--0--0--0--|--0--0--0--0--0--0--0--0--|


  E  E  E  E  E  E  E  E     E  E  E  E  E  E  E  E   
--------------------------|--------------------0--2--|
--0--0-----3-----5-----5--|--L-----------------------|
--------------------------|--------------0-----------|
-----------0-----2-----2--|--L-----0--------4--2--0--|
--2--2--------------------|-----2-----2--------------|
--------------------------|--------------------------|


  E  E  E  E  E  E  E  E     E  E  E  E  E  E  E  E   
--3--3-----0--------0-----|--3--3-----0--------L-----|
--------------------------|--------------------------|
--------------------------|--------------------------|
--------------------------|--------------------------|
--3--3--3--3--3--3--3--3--|--3--3--3--3--3--3--3--3--|
--------------------------|--------------------------|


  E  E  E  E  E  E  E  E     E  E  E  E  E  E  E  E   
--2--2--------------------|--2--2--------------------|
-----------3--------L-----|-----------3--------L-----|
--------------------------|--------------------------|
--0--0--0--0--0--0--0--0--|--------------------------|
--------------------------|--2--2--2--2--2--2--2--2--|
--------------------------|--------------------------|


  E  E  E  E  E  E  E  E     E  E  E  E  E  E  E  E   
--3-----------2-----------|--0-----------------------|
--------------------------|--------------3-----------|
--------------------------|--------------------------|
--------------------------|--------------------------|
--------------------------|--------------------------|
--0--0--0--0--0--0--0--0--|--0--0--0--0--0--0--0--0--|


                                                           ^      ^      ^     
  |----3----|    |----3----|                                                   
  Q    Q    Q    Q    Q    Q       Q    Q    Q    E  E     Q.     Q.     Q     
--------------------------------|-----------------2--3--|--L------------------|
-----------------3----3----3----|-----------------------|--0------3-----------|
--4----4----4----2----2----2----|--4---------4----------|--0------2------4----|
--4----4----4----0----0----0----|--4---------4----------|--2------0------4----|
--2----2----2-------------------|--2---------2----------|----------------2----|
--------------------------------|-----------------------|---------------------|

1-------------------------------   2--------------------------
  |----3----|    |----3----|                   |----3----|     
  Q    Q    Q    Q    Q    Q         E  Q.     Q    Q    Q     
---------------------------------||-----3---------------------|
---------------------------------||-----3---------------------|
--L-----------------------------*||-----1---------------------|
--L-----------------------------*||-----2---------------------|
--L----2----1----0---------------||------------1----0---------|
----------------------3----0-----||----------------------3----|


  ^                  
  W                  
--0----------------||
--0----------------||
--0----------------||
--2----------------||
--2----------------||
--0----------------||




Duration Legend
---------------
W - whole
H - half
Q - quarter
E - 8th
S - 16th
T - 32nd
X - 64th
. - note dotted
|-n-|  - n-tuplets


Tablature Legend
----------------
L - tied note
x - dead note
g - grace note
(n) - ghost note
> - accentuded note
NH - natural harmonic
AH - artificial harmonic
TH - tapped harmonic
SH - semi harmonic
PH - pitch harmonic
h - hammer on
p - pull off
b - bend
br - bendRelease
pb - preBend
pbr - preBendRelease
brb - bendReleaseBend
\n/ - tremolo bar dip
\n - tremolo bar dive
-/n - tremolo bar Release up
/n\ - tremolo bar inverted dip
/n - tremolo bar return
-\n - tremolo bar Release down
S - shift slide
s - legato slide
/ -  slide into from below or out of upwards
\ -  slide into from above or out of downwards
~ - vibrato
W - wide vibrato
tr - trill
TP - tremolo picking
T - tapping
S - slap
P - pop
< - fade in
^ - brush up
v - brush down

        
Comments

@dart1234 (June 01, 2012 at 4:00 AM)

¡Muy bien!