Gametabs
Home
Tabs
Random

Opening Theme (Buu Saga)

Average rating: No ratings

Composer:

Tabber:

Style:

Instrument:

Created: September 16, 2011 at 12:00 AM

            Dragon Ball Z (or DBZ Theme)
Dragon Ball Z
Anime
Composed by Bruce Faulconer
Tabbed by John Adams
9/15/2011


	Guitar 1

e||----------------------------------------------------------------------|
B||----------------------------------------------------------------------|
G||----------------------------------------------------------------------|
D||----------------------------------------------------------------------|
A||------------------3----5--3--6/8/10--------------------3----5--3--6/8-|
E||--3----5--3--6-------------------------3----5--3--6-------------------|

|--------------------------------------------------------------|
|--------------------------------------------------------------|
|-------------------------------------------------7--8--7----7-|
|--8----7--8--10--7----------------8----7--8--10----------10---|
|--------------------10--8-10-8--------------------------------|
|--------------------------------------------------------------|

|----------------------------------------------------------------------|
|----------------------------------------------------------------------|
|----------------------------------------------------------------------|
|----------------------------------------------------------------------|
|------------------3----5--3--6/8/10--------------------3----5--3--6/8-|
|--3----5--3--6-------------------------3----5--3--6-------------------|

|--------------------------------------------------------------------------------------------|
|--------------------------------------------------------------------------------------------|
|-------------------3--5---------------------3------------------------3--5---3--8--3---------|
|--5--3--5-5--3--5--3--5----5--3--5-5--3--5--3--3----5--3--5-5--3--5--3--5---3--6--3---3---3-|
|--5--3--5-5--3--5--1--3----5--3--5-5--3--5--1--3----5--3--5-5--3--5--1--3---1--6--1---3---3-|
|--3--1--3-3--1--3----------3--1--3-3--1--3-----1----3--1--3-3--1--3-------------------1---1-|

|-------------------------------------------------------------||
|-------------------------------------------------------------||
|-------------------3--5---7--8--10----9-9-9-8-8-8-7----7-7-7-||
|--5--3--5-5--3--5--3--5---7--8--10----9-9-9-8-8-8-7----7-7-7-||
|--5--3--5-5--3--5--1--3---5--6---8----7-7-7-6-6-6-5----5-5-5-||
|--3--1--3-3--1--3--------------------------------------------||



	Guitar 2
						         PH
e||-------------------------------------------------------------|
B||-----------------------------15-15-15-18b20r-----------------|
G||--14-14-14-15-15-15-17-17-17----------------------15--17~----|
D||----------------------------------------------------------17-|
A||-------------------------------------------------------------|
E||-------------------------------------------------------------|

|--------------------18-18-18-20-20-20-21b23r----------------------------------------|
|--18-18-18-20-20-20-----------------------------------------------------------------|
|------------------------------------------------------------------------------------|
|--------------------------------------------------t19p17p15t19p17p15t19p17p15/20b21-|
|------------------------------------------------------------------------------------|
|------------------------------------------------------------------------------------|

|-----------------------------------------------------------------20-20-20-22-22-22-24--|
|-----------------------18-18-18-18-18-19~------20-20-20-22-22-22-----------------------|
|---------------------------------------------------------------------------------------|
|---------------------------------------------------------------------------------------|
|---------------------------------------------------------------------------------------|
|--15-17-15-14b15r----------------------------------------------------------------------|
                                            tr
|--------------------------------------------------------------------------------------||
|----------------------------------------------------------------------------------/17-||
|--t19p17p15t19p17p15t19p17p15-21b23---------------------------------------------------||
|--------------------------------------------------------------------------------------||
|-----------------------------------------10tr13--12p9-11p8-10p7-9p6-8p5-7p4-6p3-5-----||
|--------------------------------------------------------------------------------------||

PH - pinch harmonic
tr - trill
t - tapping
b - bend
/ - slide upward
        
Comments

No comments yet