Gametabs
Home
Tabs
Random

Main Theme

Average rating: 5.000

2 ratings

Composer:

Tabber:

Style:

Instrument:

Created: August 27, 2008 at 12:00 AM

            Dragon Ball Z: Shin Budokai
Theme
Composer Kenji Yamamoto
Tabbed by hslesperance
8/24/08

Standard Tuning

e---------------------------------------------------------------------------
B------10-----10-----10-----10-----10-----10-----10-------12b13r12----------
G--------------------------------------------------------------------12-----
D---7------7------7------7------7------7------7-----------------------------
A---------------------------------------------------------------------------
E---------------------------------------------------------------------------

e---------------------------------------------------------------------------
B------------------------------------------------------------12b13r12-------
G-------------------------------------------10/12---------------------------
D---12-12/14~~------10-12b13r12--10--12-10--------12~~~~--------------------
A---------------12----------------------------------------------------------
E---------------------------------------------------------------------------

e---------------------------------------------------------------------------
B---------------------------------------------------------------------------
G---12------12/14-------------------------12--------12--------14--------17--
D-------12---------------10-12b13r12--10-----10/12------12/14-----14/17-----
A-------------------12------------------------------------------------------
E---------------------------------------------------------------------------

e---------------------------------------------------------------------------
B----------14~~-----10--9-----10--------------------------------------------
G---12/14-----------------11-----11--9-9--------------------9-9/11----------
D--------------------------------------------9-11-12--11-12-----------------
A---------------------------------------------------------------------------
E---------------------------------------------------------------------------

e-----------------9-----9--9-7-9-10----12\----------12-----12--10--9h10-----
B---10--9--10-12------------------------------7/10------10------------------
G---------------------------------------------------------------------------
D---------------------------------------------------------------------------
A---------------------------------------------------------------------------
E---------------------------------------------------------------------------

e---9----12------12--10-9h10--9---------------9--10\----14--12------12------
B-----9-------9-----------------10/12--10--12-------------------15----------
G---------------------------------------------------------------------------
D---------------------------------------------------------------------------
A---------------------------------------------------------------------------
E---------------------------------------------------------------------------

e-------13-12--10---12\-------12------12--10--9h10--9----12----12--10-------
B---10--------------------10------10------------------9------9--------------
G---------------------------------------------------------------------------
D---------------------------------------------------------------------------
A---------------------------------------------------------------------------
E---------------------------------------------------------------------------

e---9h10--9---------------9--10\----14--12------12-----13--12------12\------
B------------12--10---12--------------------15-----------------15-----------
G---------------------------------------------------14----------------------
D---------------------------------------------------------------------------
A---------------------------------------------------------------------------
E---------------------------------------------------------------------------
                                    1/4
e----14--12------12-----13-12--10---12-p10----------------------------------
B------------15-----------------------------14~~~~~-------------------------
G--------------------14-----------------------------------------------------
D---------------------------------------------------------------------------
A---------------------------------------------------------------------------
E---------------------------------------------------------------------------

/ - slide up
b - bend
r - release
\ - slide down
~ - vibrato
1/4 - quarter bend

        
Comments

@Zabusa (August 29, 2008 at 12:10 PM)

Hey man, Thx a Lot, i was looking for ^^


@Bank (April 25, 2009 at 8:16 AM)

Sounds good =D