Gametabs
Home
Tabs
Random

Wild Soul

Average rating: 5.000

2 ratings

Composer:

Tabber:

Style:

Instrument:

Created: August 12, 2010 at 12:00 AM

            Wild Soul
Dragon Ball Z: Budokai 2
Composed by Kenji Yamamoto
Tabbed by hslesperance
11/20/08

Standard Tuning


e---------7--5-------------7--5-------5--4b5r--------------------
B---3/5-8-------5----3/5-8-------5-------------5-----------------
G---------------------------------------------------2--2--1/4----
D--------------------------------------------------------------2-
A----------------------------------------------------------------
E----------------------------------------------------------------

e---------7--5-------------7--5-/10--8--7h8p7-----7---15---12----
B---3/5-8-------5----3/5-8--------------------10-----------------
G----------------------------------------------------------------
D----------------------------------------------------------------
A----------------------------------------------------------------
E----------------------------------------------------------------

e------12~~~~\---------------------------------------------------
B---15-----------------------------------------------------------
G----------------------------------------------------------------
D----------------12-12-12--12-12-12--12-12-12-11-11-11---12-12-12
A----------------------------------------------------------------
E----------------------------------------------------------------

e----------------------------------------------------------------
B----------------------------------------------------------------
G----------------------------------------------------------------
D---12--12-12-12--12-12-12-11-11-11--12-12-12-12--12-12-12p11--11
A----------------------------------------------------------------
E----------------------------------------------------------------

e----------------------------------------------------------------
B----------------------------------------------------------------
G----------------------------------------------------------------
D---11-11p9---9-9-9p7--7-7-7--5---5-7--5----------12-12-12--12---
A---------------------------------------------7------------------
E----------------------------------------------------------------

e----------------------------------------------------------------
B----------------------------------------------------------------
G----------------------------------------------------------------
D---12-12--12-12-12-11-11-11---12-12-12-12--12-12-12--12-12-12---
A----------------------------------------------------------------
E----------------------------------------------------------------

e----------------------------------------------------------------
B----------------------------------------------------------------
G----------------------------------------------------------------
D---11-11-11--12-12-12-12--12-12-12p11--11-11-11p9--9-9-9p7--7---
A----------------------------------------------------------------
E----------------------------------------------------------------

e----------------------------------------------------------------
B----------------------------------------------------------------
G----------------------------------------------------------------
D---7-7--5---5-7--8~~---2-5--2-5--2-5--2-5--5-2-2-2--2-5--2-5----
A----------------------------------------------------------------
E----------------------------------------------------------------

e----------------------------------------------------------------
B----------------------------------------------------------------
G----------------------------------------------------------------
D---2-5--2-5------2-5--2-5--2-5--2-5--5-2-2-2--2-5--2-5--2-5-2-5-
A----------------------------------------------------------------
E----------------------------------------------------------------

e----------------------------------------------------------------
B----------------------------------------------------------------
G----------------------------------------------------------------
D---5-8--5-8--5-8--5-8--8-5-5-5--5-8--5-8--5-8--5-8--------------
A----------------------------------------------------------------
E----------------------------------------------------------------

e----------------------------------------------------------------
B----------------------------------------------------------------
G--------------------------------9-------------------------------
D---5-8--5-8--5-8--5-8--8-5-5-5----------------------------------
A----------------------------------------------------------------
E----------------------------------------------------------------

e---------7--5-------------7--5-------5--4b5r--------------------
B---3/5-8-------5----3/5-8-------5-------------5-----------------
G---------------------------------------------------2--2--1/4----
D--------------------------------------------------------------2-
A----------------------------------------------------------------
E----------------------------------------------------------------

e---------7--5-------------7--5-/10--8--7h8p7-----7---15---12----
B---3/5-8-------5----3/5-8--------------------10-----------------
G----------------------------------------------------------------
D----------------------------------------------------------------
A----------------------------------------------------------------
E----------------------------------------------------------------

e------12~~~~\---------------------------------------------------
B---15----------17~~~-17p15---------15---------------------------
G---------------------------16--16-----16~~\---------------------
D-----------------------------------------------12-12--12-12-12--
A----------------------------------------------------------------
E----------------------------------------------------------------

e----------------------------------------------------------------
B----------------------------------------------------------------
G----------10--11------------------------------------------------
D---12-12-----------12-11-12-12--11---------8--7h8p7---------6---
A-----------------------------------12----8----------8---6-8-----
E----------------------------------------------------------------

e----------------------------------------------------------------
B-----------------------------------4--6p4----4-6~~--4-----------
G--------------------------------5---------5---------------------
D-------6---------6----6/8----6----------------------------------
A---6-8---6---6-8----8-----8-------------------------------------
E----------------------------------------------------------------

Couldn't transcribe solo:(
e----------------------------------------------------------------
B----------------------------------------------------------------
G----------------------------------------------------------------
D----------------------------------------------------------------
A----------------------------------------------------------------
E----------------------------------------------------------------

e----------------------------------------------------------------
B----------------------------------------------------------------
G----------------------------------------------------------------
D---2-5--2-5--2-5--2-5--5-2-2-2--2-5--2-5--2-5--2-5--------------
A----------------------------------------------------------------
E----------------------------------------------------------------

e----------------------------------------------------------------
B----------------------------------------------------------------
G----------------------------------------------------------------
D---2-5--2-5--2-5--2-5--5-2-2-2--2-5--2-5--2-5--2-5--------------
A----------------------------------------------------------------
E----------------------------------------------------------------

e----------------------------------------------------------------
B----------------------------------------------------------------
G----------------------------------------------------------------
D---5-8--5-8--5-8--5-8--8-5-5-5--5-8--5-8--5-8--5-8--------------
A----------------------------------------------------------------
E----------------------------------------------------------------

e----------------------------------------------------------------
B----------------------------------------------------------------
G------------------------------------9---------------------------
D---8-11--8-11--8-11--8-11--11-8-8-8-----------------------------
A----------------------------------------------------------------
E----------------------------------------------------------------

e---------7--5-------------7--5-------5--4b5r--------------------
B---3/5-8-------5----3/5-8-------5-------------5-----------------
G---------------------------------------------------2--2--1/4----
D--------------------------------------------------------------2-
A----------------------------------------------------------------
E----------------------------------------------------------------

e---------7--5-------------7--5-/10--8--7h8p7-----7---15---12----
B---3/5-8-------5----3/5-8--------------------10-----------------
G----------------------------------------------------------------
D----------------------------------------------------------------
A----------------------------------------------------------------
E----------------------------------------------------------------

e------12~~~~\--------7--5-------------7--5-------5--4b5r--------
B---15----------3/5-8-------5----3/5-8-------5-------------5-----
G----------------------------------------------------------------
D----------------------------------------------------------------
A----------------------------------------------------------------
E----------------------------------------------------------------

e---------------------------------12--14--18---18-19---15--14----
B---15--14----------------11--14------------------------------15-
G-----------14--------11-----------------------------------------
D---------------14-----------------------------------------------
A----------------------------------------------------------------
E----------------------------------------------------------------

/ - slide up
h - hammer on
p - pull off
\ - slide down

        
Comments

@Ew0k187 (May 17, 2011 at 2:01 AM)

not sure if its just me but when i go from 3/5--8 to 7-5 the pitch gets higher, when in the song i hear that it gets lower. is this a mistake or am i mistaken? great song and thanks for the tabs


@Ew0k187 (May 18, 2011 at 4:59 AM)

5 stars from me


@Rigbone24 (May 18, 2012 at 11:47 PM)

Definitely deserves 5 stars