Gametabs
Home
Tabs
Random

Limit Break x Survivor

Average rating: 5.000

2 ratings

Composer:

Tabber:

Style:

Instrument:

Created: August 28, 2017 at 12:00 AM

            1|-----------------------------------------|
2|----------------------------------7-5----|
3|-------------------------7-6----------6--|
4|7-9-7-9-7-9-7-9(×2)----------7-4--------7|
5|-----------------------------------------|
6|-----------------------------------------|

1|--------------------------------------------------------------|
2|--------------------------------------------------------------|
3|--------------------------------------------------------------|
4|9-9-11-12-12----------11-12-12----11-9-11-9-11-9-11-9--12-11-9|
5|----------------12-12-----------------------------------------|
6|--------------------------------------------------------------|

1|-------------------------------------------------------|
2|-------------------------------------------------------|
3|-----------------------------------------------------11|
4|9-9-11-12-12----------11-12-12----12-9-9--12-9-9--12---|
5|----------------12-12----------------------------------|
6|-------------------------------------------------------|

1|-------------------------------------------------------------|
2|-------------------------------------------------------------|
3|11-11-11-----------9-11(×2)-11-9----9(×2)-11-9---------9-11-9|
4|------------9-12-----------------12------------12-9-12-------|
5|-------------------------------------------------------------|
6|-------------------------------------------------------------|

1|------------------------------------------|
2|------------------------------------------|
3|9-9-9-10-9--------------------10-10-9-----|
4|-----------12-9------9-9-12-9---------12-9|
5|----------------12-9----------------------|
6|------------------------------------------|
        
Comments

No comments yet