Gametabs
Home
Tabs
Random

Track 28

Average rating: 5.000

3 ratings

Composer:

Tabber:

Style:

Instrument:

Created: June 22, 2012 at 12:00 AM

            Track 28
Dragon Ball GT
Composed by Akihito Tokunaga
Tabbed by hslesperance
6/22/12

Standard Tuning


  E E E E Q.   E   E E E E Q.   E   E E Q  E S E. E   E E E E Q  E E
|-----1---0------|-----3-1-0------|-----1--0--------|-----------------|
|-3-------1----1-|-3-------1----1-|-3------1---3--1-|-3-------3----1--|
|-0-------2------|-0-------2------|-0------2--------|-2---0-2-2--2----|
|---0---0-2------|---0-----2------|---0----2-2------|-0-0-----4-------|
|---------0------|---------0------|--------0--------|-----------------|
|-3--------------|-3--------------|-3---------------|-----------------|


  E E E E E E E E   E E E E E E E E   E E Q  E S E. E   E E E E Q  Q
|-----1---0-------|-----3-1-0-------|-----1--0--------|------------5--|
|-3-------1-----1-|-3-------1-----1-|-3------1---3--1-|-3-------3-----|
|-0-------2---0---|-0-------2---0---|-0------2--------|-2---0-2-2-----|
|---0---0-2-2-----|---0-----2-2-----|---0----2-2------|-0-0-----4-----|
|---------0-------|---------0-------|--------0--------|---------------|
|-3---------------|-3---------------|-3---------------|---------------|


  E E E E E E E E   E E E E E E E E   E E E E +E  E E E   E E E E +E  E E E
|-5-----5-3---5---|-----------0-1-5-|-3-----------------|-------------3-3-3-|
|-----------------|-3-----3-3-------|---1-1-------------|-------1-(1)-1-----|
|-----3-----3---3-|-----3-3---------|-------2-(2)-------|-----2-------2-----|
|---3-------------|---3-------------|---2---------2---2-|---2---------------|
|-1---------------|-1---------------|-0-------------0---|-0-----------------|
|-----------------|-----------------|-------------------|-------------------|


  E E E E E E E E   +E  Q  E E E E E
|-3---3---3-------|-----0----0-------*|
|-4-4-4-4-5-----3-|-(3)----3-2-----2-*|
|---5---5-----2---|--------------2---*|
|-----------2-----|------------2-----*|
|---------0-------|----------0-------*|
|-4---------------|------------------*|

W - whole
H - half
Q - quarter
E - 8th
S - 16th
+ - note tied to previous
. - note dotted

        
Comments

No comments yet