Gametabs
Home
Tabs
Random

Once We Were

Average rating: No ratings

Composer:

Tabber:

Style:

Instrument:

Created: March 01, 2015 at 12:00 AM

            --0-------------------0-----------0-------------------------0--------------------0-----------0---------
-----3--2--0----2--3----0--0--0-----3--2--0-------------------3--2--0-----2--3-----0--0--0-----3--2--0-
--------------2-------------------------------2-----------2-------------2------------------------------
-------------------------------------------------4--2--4-----------------------------------------------
-------------------------------------------------------------------------------------------------------
-------------------------------------------------------------------------------------------------------

------------------0--5--5--5--4--2--0--0--0---------------------0-----------0--5--5--5--4--2--0--0--0-
----------------------------------------------3--2--0-----2--3-----0--0--0----------------------------
--2------------2---------------------------------------2----------------------------------------------
-----4--2--4------------------------------------------------------------------------------------------
------------------------------------------------------------------------------------------------------
------------------------------------------------------------------------------------------------------

---------------------------
--3--2--0------------------
------------2------------2- x2
---------------4--2--4-----
---------------------------
---------------------------
        
Comments

No comments yet