Gametabs
Home
Tabs
Random

Mission 4

Average rating: 5.000

1 ratings

Composer:

Tabber:

Style:

Instrument:

Created: June 19, 2008 at 12:00 AM

            Guitar One part - 

Intro:
-|       |       |       |        
|----------------------------7---|
|--------8---9---10--8-----------|
|----9-------------------9-------|
|--------------------------------|
|--------------------------------|
|--------------------------------|

Riff 1 - Repeat 2x

-|       |       |       |        |       |       |       |        
|------------8---7---------------|------------7---8---10--8---7---|
|10--9---10----------10--9-------|10--9---10----------------------|
|----------------------------9---|--------------------------------|
|--------------------------------|--------------------------------|
|--------------------------------|--------------------------------|
|--------------------------------|--------------------------------|

-|       |       |       |        |       |       |       |        
|--------------------------------|--------------------------------|
|9---10--------------------------|--------------------------------|
|--------8---9-------------------|------------------------8---9---|
|----------------9---10----------|----------------9---10----------|
|------------------------11--12--|--------11--12------------------|
|--------------------------------|11--12--------------------------|

Riff 2 -

-|       |       |       |        |       |       |       |        
|------------8---7---------------|------------8---7-------7---8---|
|10------------------10----------|10------------------10----------|
|----10--7---------------10--7---|----10--7-----------------------|
|--------------------------------|--------------------------------|
|--------------------------------|--------------------------------|
|--------------------------------|--------------------------------|

-|       |       |       |        |       |       |       |        
|------------7---8---7-----------|7---8---10--8---7---------------| 2x
|10----------------------10------|--------------------10--9---10--|
|----9-----------------------9---|--------------------------------|
|--------10----------------------|--------------------------------|
|--------------------------------|--------------------------------|
|--------------------------------|--------------------------------|

-|       |       |       |        |       |       |       |        
|------------8---7---------------|------------8---7-------7---8---|
|10------------------10----------|10------------------10----------|
|----10--7---------------10--7---|----10--7-----------------------|
|--------------------------------|--------------------------------|
|--------------------------------|--------------------------------|
|--------------------------------|--------------------------------|

-|       |       |       |        |       |       |       |        
|8-------8---8---8---10------8---|7-------------------------------|
|--------------------------------|--------------------------------|
|--------------------------------|----------------------------9---|
|--------------------------------|--------------------------------|
|--------------------------------|--------------------------------|
|--------------------------------|--------------------------------|



-|       |       |       |        |       |       |       |        
|--------------------------------|--------------------------------|
|----9---10----------------------|--------------------------------|
|12----------9-------------------|--------10--10------9-------9---|
|----------------------------10--|12--10--------------------------|
|--------------------12----------|--------------------------------|
|--------------------------------|--------------------------------|

Fill - 

-|       |       |       |        |       |       |       |        
|--------------------------------|----7---8---10--7---------------|
|----9-----------------------9---|10------------------10--9-------|
|12------------------8---9-------|----------------------------9---|
|--------7---9---10--------------|--------------------------------|
|--------------------------------|--------------------------------|
|--------------------------------|--------------------------------|

-|       |       |       |        |       |       |       |        
|----7---------------------------|----10--11--12--15--16--17--15--|
|9-----------10------12------13--|--------------------------------|
|--------------------------------|--------------------------------|
|--------------------------------|--------------------------------|
|--------------------------------|--------------------------------|
|--------------------------------|--------------------------------|

-|       |       |       |        
|----19--------------------------|
|17------------------------------|
|--------------------------------|
|--------------------------------|
|--------------------------------|
|--------------------------------|

Repeat Riff 1   two times

Riff 4 - 

-|       |       |       |        |       |       |       |        
|--------------------------------|--------------------------------|
|------------10------------------|------------10------10--12--13--|
|10----------------------10------|10------------------------------|
|--------12------------------12--|--------12----------------------|
|--------------------------------|--------------------------------|
|--------------------------------|--------------------------------|

-|       |       |       |        |       |       |       |        
|12----------------------12------|15------------------------------|
|----13------10------------------|----13------10------------------|
|--------------------------------|------------------------9-------|
|--------------------------------|--------------------------------|
|--------------------------------|--------------------------------|
|--------------------------------|--------------------------------|

-|       |       |       |        |       |       |       |        
|--------------------------------|--------------------------------|
|------------10------10----------|------------10------10--12--13--|
|10----------------------10------|10------------------------------|
|--------12------------------12--|--------12----------------------|
|--------------------------------|--------------------------------|
|--------------------------------|--------------------------------|

-|       |       |       |        |       |       |       |        
|--------------------10----------|--------------------------------|
|13------13--13--13----------13--|12------------------------------|
|--------------------------------|----------------------------9---|
|--------------------------------|--------------------------------|
|--------------------------------|--------------------------------|
|--------------------------------|--------------------------------|

Repeat Fill










Guitar 2 Part - 

Intro - Stroke it

Riff 1 - Repeat 6x

-|       |       |       |        
|--------------------------------|
|--------------------------------|
|--------------------------------|
|7-------7-------7-------7-------|
|----7-------7-------7-------7---|
|--------------------------------|

Fill - Guitar 2 -

-|       |       |       |        |       |       |       |        
|--------------------------------|--------------------------------|
|--------9---10------------------|------------------------9---10--|
|----------------8---9-----------|----------------8---9-----------|
|------------------------9---10--|--------9---10------------------|
|--------------------------------|11--12--------------------------|
|--------------------------------|--------------------------------|

Riff 2 - 

-|       |       |       |        |       |       |       |        
|--------------------------------|--------------------------------|
|--------------------------------|--------------------------------|
|--------------------------------|--------------------------------|
|------------7-------------------|------------7-------7---9---10--|
|8-----------------------8-------|8-------------------------------|
|--------10------------------10--|--------10----------------------|

-|       |       |       |        |       |       |       |        
|--------------------------------|--------------------------------|
|--------------------------------|8-------------------------------|
|9-----------------------9-------|--------------------------------|
|----10------7-------------------|----10------7-------------------|
|--------------------------------|------------------------7-------|
|--------------------------------|--------------------------------|

-|       |       |       |        |       |       |       |        
|--------------------------------|--------------------------------|
|--------------------------------|--------------------------------|
|--------------------------------|--------------------------------|
|------------7-------------------|------------7-------7---9---10--|
|8-----------------------8-------|8-------------------------------|
|--------10------------------10--|--------10----------------------|

-|       |       |       |        |       |       |       |        
|--------------------------------|--------------------------------|
|--------------------------------|--------------------------------|
|8-------------------------------|7---------------------------9---|
|--------------------------------|--------------------------------|
|--------------------------------|--------------------------------|
|--------------------------------|--------------------------------|

        
Comments

@michiro (June 22, 2008 at 8:40 PM)

This piece is also known as "Old Nemesis Willy", Epic win indeed :D


@Chid (October 14, 2008 at 7:02 PM)

awesome piece, but I thought this was the song for misison 4.


@LTRobson (March 02, 2010 at 12:44 AM)

Is it this? http://www.youtube.com/watch?v=FMl7HBMqXXk

There's no mention of the system this tab is for.


@Bene (March 24, 2010 at 11:55 PM)

Great tab, but I think the marker for the Fill is in the wrong part. That part actually starts on the tab line just above it.


@DREWLASERDEATH (March 08, 2011 at 5:05 PM)

Thanks for fixing the title :)


@flowershin5 (June 25, 2018 at 3:15 PM)

why does the listen button download the title screen midi? or is something wrong with my browser/cpu?