Gametabs
Home
Tabs
Random

Mission 1

Average rating: No ratings

Composer:

Tabber:

Style:

Instrument:

Created: July 10, 2012 at 12:00 AM

            Double Dragon 2 - Mission 1
a.k.a. Into the Turf
Composed by: Kazunaka Yamane, M. Hirasawa
Tabbed by: Mike Q.
Date: July 9, 2012

Bass

Part 1 (play twice through)
G----------------------------------------------------------------
D-----2-4-----2-4-----2-4-----2-4-----0-2-----0-2-----0-2-----0-2
A-2-2-------2-----2-2-------2-----0-0-------0-----0-0-------0----
E---------------------------------------------------------------- (x3)

G----------------------------------------------------------------
D----------------------------------------------------------------
A-----3-5-----3-5-----1-3-----1-3-----3-5-----3-5----------------
E-3-3-------3-----1-1-------1-----3-3-------3--------------------


Part 2
G----------------------------------------------------------------
D-----3-5-----3-5-----3-4-----3-4-----0-2-----0-2-----4----------
A-3-3-------3-----2-2-------2-----0-0-------0-----------5-----0-2
E-------------------------------------------------3-3-------3---- (x2)

(repeat at part 1)
        
Comments

No comments yet