Gametabs
Home
Tabs
Random

The Demon's Dead

Average rating: 4.500

2 ratings

Composer:

Tabber:

Style:

Instrument:

Created: October 01, 2007 at 12:00 AM

            Transcribed by Aaron Morison ([email protected])

Gtr I (E A D G B E) - 'Lead Guitar'

  Q=80
4/4
  Gtr I
  E E E E Q  Q    E E E E E E E E   E E E E Q  Q    E E E E E E E E
|---------------|-----------------|---------------|------------------|
|---------------|-----------------|---------------|------------------|
|---------0-----|-----------------|---------------|------------------|
|---4-3------4--|---4-3---2-0-----|---------5--4--|---4-3---2-0------|
|-2-----2-------|-2-----2-----4---|---9-8---------|-2-----2-----4----|
|---------------|---------------5-|-7-----7-------|---------------5--|

  E E E E Q  Q    E E E E E E E E   E E E E Q  Q    E E E E E E E E
|---------------|-----------------|---------------|-----------------|
|---------------|-----------------|---------------|-----------------|
|---------------|-----------------|---------------|-----------------|
|---------5--4--|---4-3---2-0-----|---------5--4--|---4-3---2-0-----|
|---9-8---------|-2-----2-----4---|---9-8---------|-2-----2-----4---|
|-7-----7-------|---------------5-|-7-----7-------|---------------5-|

  E E E E Q  Q    E E E E E E E E   E E E E Q  Q    E E E E E E E E
|---------------|-----------------|---------------|-----------------|
|---------------|-----------------|---------------|-----------------|
|---------------|-----------------|---------------|-----------------|
|---------1--0--|-----------------|---------1--0--|-----------------|
|---5-4---------|---5-4---3-1-0---|---5-4---------|---5-4---3-1-0---|
|-3-----3-------|-3-----3-------1-|-3-----3-------|-3-----3-------1-|

  E E E E Q  Q    E E E E E E E E   E E E E Q  Q    E E E E E E E E
|---------------|-----------------|---------------|-----------------|
|---------------|-----------------|---------------|-----------------|
|---------0-----|-----------------|---------------|-----------------|
|---4-3------4--|---4-3---2-0-----|---------5--4--|---4-3---2-0-----|
|-2-----2-------|-2-----2-----4---|---9-8---------|-2-----2-----4---|
|---------------|---------------5-|-7-----7-------|---------------5-|

  E E E E Q  Q    E E E E Q  Q    E E E E Q  Q    E E E E E E E E
|---------------|---------------|---------------|-----------------|
|---------------|---------------|---------------|-----------------|
|---------------|---------------|---------0-----|-----------------|
|---------1--0--|---------------|---4-3------4--|---4-3---2-0-----|
|---5-4---------|---2-1---3--2--|-2-----2-------|-2-----2-----4---|
|-3-----3-------|-0-----0-------|---------------|---------------5-|

  E E E E Q  Q    E E E E E E E E   E E E E Q  Q    E E E E E E E E
|---------------|-----------------|---------------|-----------------|
|---------------|-----------------|---------------|-----------------|
|---------------|-----------------|---------------|-----------------|
|---------5--4--|---4-3---2-0-----|---------5--4--|---4-3---2-0-----|
|---9-8---------|-2-----2-----4---|---9-8---------|-2-----2-----4---|
|-7-----7-------|---------------5-|-7-----7-------|---------------5-|

  E E E E Q  Q    E E E E E E E E   E E E E Q  Q    E E E E E E E E
|---------------|-----------------|---------------|-----------------|
|---------------|-----------------|---------------|-----------------|
|---------------|-----------------|---------------|-----------------|
|---------5--4--|---4-3---2-0-----|---------1--0--|-----------------|
|---9-8---------|-2-----2-----4---|---5-4---------|---5-4---3-1-0---|
|-7-----7-------|---------------5-|-3-----3-------|-3-----3-------1-|

  E E E E Q  Q    E E E E E E E E   E E E E Q  Q    E E E E E E E E
|---------------|-----------------|---------------|-----------------|
|---------------|-----------------|---------------|-----------------|
|---------------|-----------------|---------0-----|-----------------|
|---------1--0--|-----------------|---4-3------4--|---4-3---2-0-----|
|---5-4---------|---5-4---3-1-0---|-2-----2-------|-2-----2-----4---|
|-3-----3-------|-3-----3-------1-|---------------|---------------5-|

  E E E E Q  Q    E E E E E E E E   E E E E Q  Q    E E E E Q  Q
|---------------|-----------------|---------------|---------------|
|---------------|-----------------|---------------|---------------|
|---------------|-----------------|---------------|---------------|
|---------5--4--|---4-3---2-0-----|---------1--0--|---------------|
|---9-8---------|-2-----2-----4---|---5-4---------|---2-1---3--2--|
|-7-----7-------|---------------5-|-3-----3-------|-0-----0-------|

  E E E E Q  Q    E E E E E E E E   E E E E Q  Q    E E E E E E E E
|---------------|-----------------|---------------|-----------------*|
|---------------|-----------------|---------------|-----------------*|
|---------0-----|-----------------|---------------|-----------------*|
|---4-3------4--|---4-3---2-0-----|---------5--4--|---4-3---2-0-----*|
|-2-----2-------|-2-----2-----4---|---9-8---------|-2-----2-----4---*|
|---------------|---------------5-|-7-----7-------|---------------5-*|

        
Comments

@RexLeRouge (August 21, 2008 at 4:06 PM)

Your fingering is weird :S i think mine is easier anyway nice tab