Gametabs
Home
Tabs
Random

Running From Evil

Average rating: No ratings

Composer:

Tabber:

Style:

Instrument:

Created: November 11, 2008 at 12:00 AM

                                Doom 2 - Running from Evil BASS TAB
                          Song by Robert Prince

                  Tabbed by auriplane ([email protected])

This entire tab repeats twice by the time the song is done.  On the
first time through, the organs come in at Part A.  On the second time,
the guitar comes in at Part A as well.  (I've made a guitar tab to go 
with this, which you can find on GameTabs.)

Four-string bass, standard tuning.

    Intro

G |----------------|----------------|----------------|----------------|
D |----------------|----------------|----------------|----------------|
A |--------------1-|--------------2-|--------------3-|------------4-2-|
E |00-00-00-00-0---|00-00-00-00-0---|00-00-00-00-0---|00-00-00-00-----|

G |----------------|----------------|----------------|----------------|
D |----------------|----------------|----------------|----------------|
A |--------------1-|--------------2-|--------------3-|------------4321|
E |00-00-00-00-0---|00-00-00-00-0---|00-00-00-00-0---|00-00-00-00-----|

    Part A (Organ and guitar come in here)

G |----------------|----------------|----------------|----------------|
D |----------------|----------------|----------------|----------------|
A |--------------1-|--------------2-|--------------3-|------------3-2-|
E |00-00-00-00-0---|00-00-00-00-0---|00-00-00-00-0---|00-00-00-00-----|

G |----------------|----------------|----------------|----------------|
D |----------------|----------------|----------------|----------------|
A |--------------1-|--------------2-|--------------3-|------------4-2-|
E |00-00-00-00-0---|00-00-00-00-0---|00-00-00-00-0---|00-00-00-00-----|

G |----------------|----------------|----------------|----------------|
D |--------------1-|--------------2-|--------------3-|------------3-2-|
A |00-00-00-00-0---|00-00-00-00-0---|00-00-00-00-0---|00-00-00-00-----|
E |----------------|----------------|----------------|----------------|

G |----------------|----------------|----------------|----------------|
D |--------------1-|--------------2-|--------------3-|------------4-2-|
A |00-00-00-00-0---|00-00-00-00-0---|00-00-00-00-0---|00-00-00-00-----|
E |----------------|----------------|----------------|----------------|

    Part B

G |----------------|----------------|----------------|----------------|
D |----------------|----------------|----------------|----------------|
A |--------------1-|--------------2-|--------------3-|------------3-2-|
E |00-00-00-00-0---|00-00-00-00-0---|00-00-00-00-0---|00-00-00-00-----|

G |----------------|----------------|----------------|----------------|
D |----------------|----------------|----------------|----------------|
A |--------------1-|--------------2-|--------------3-|------------4-2-|
E |00-00-00-00-0---|00-00-00-00-0---|00-00-00-00-0---|00-00-00-00-----|

G |----------------|----------------|----------------|----------------|
D |----------------|----------------|----------------|----------------|
A |--------------4-|--------------4-|--------------4-|----------------|
E |33-33-33-33-3---|22-22-22-22-2---|11-11-11-11-1---|00-00-00-00-0012|

G |----------------|----------------|----------------|----------------|
D |----------------|----------------|----------------|----------------|
A |--------------4-|--------------4-|--------------4-|----------------|
E |33-33-33-33-3---|22-22-22-22-2---|11-11-11-11-1---|00-00-00-00-3-2-|

    Part C

G |----------------|----------------|----------------|----------------|
D |----------------|----------------|----------------|----------------|
A |--------------1-|--------------2-|--------------3-|------------3-2-|
E |00-00-00-00-0---|00-00-00-00-0---|00-00-00-00-0---|00-00-00-00-----|

G |----------------|----------------|----------------|----------------|
D |----------------|----------------|----------------|----------------|
A |--------------1-|--------------2-|--------------3-|------------4-2-|
E |00-00-00-00-0---|00-00-00-00-0---|00-00-00-00-0---|00-00-00-00-----|

    Repeat back to the beginning.

        
Comments

No comments yet