Gametabs
Home
Tabs
Random

Level Finished

Average rating: No ratings

Composer:

Tabber:

Style:

Instrument:

Created: October 01, 2007 at 12:00 AM

            Transcribed by Aaron Morison ([email protected])

Gtr I (E A D G)

  Q=95
 4/4
  Gtr I
  H    E S S +E  E   +S  E S +E  S S S E. E E
|------------------|--------------------------|
|------------------|--------------------------|
|----------2-(2)-3-|-(3)---------2-2---3------|
|------------------|-----3-2-(2)----------3-2-|

  +S  E. E. S +S  E. E. S   S S E +S  E S +E  E +S  E.
|-------------------------|----------------------------|
|-------------------------|----------------------------|
|-----2--3-----------2--3-|-3-----------2-(2)-3-(3)----|
|-(2)-------3-(3)-2-------|-----3-(3)-2-------------3--|

  E E +S  S S S E. S +S  E.   E. S +E  E S S S S +E  E
|---------------------------|--------------------------|
|---------------------------|--------------------------|
|---2-(2)-3-3------------2--|-3----------2---2-3-(3)---|
|-2-------------3--2-(2)----|----3-(3)-2-------------3-|

  +S  E. E S S S E. E. S   S E. E. S +E  E E. S
|------------------------|-----------------------|
|------------------------|-----------------------|
|--------2-3---3-------2-|-2-3-----------2-3-----|
|-(3)-2----------3--2----|------3--2-(2)------3--|

  S S E +S  E S S S E +S  E.
|----------------------------|
|----------------------------|
|-----------2-3---3----------|
|---3-2-(2)---------3-(3)-2--|

  S S S S +S  E. E. S +E  S S   E. S +E  E +S  E S S S E
|-----------------------------|---------------------------|
|-2-2---3-(3)-------2-(2)-3-3-|----------2-(2)-3----------|
|-------------3--2------------|-3--2-(2)---------3---3-2--|
|-----------------------------|---------------------------|

  +S  E. E E +S  S S S E. S   +E  E S S S S +E  E +S  S S S
|---------------------------|-------------------------------|
|-----2--3------------------|-------------------------------|
|-(2)------3-(3)-2---0-2--3-|-(3)---------2-(2)-3-(3)-------|
|---------------------------|-----3-2---2-------------3-3-2-|

  +E  E +S  S S S E E +S  S S S
|--------------------------------|
|--------------------------------|
|-----2-(2)-3-3-----------2---2--|
|-(2)-------------3-2-(2)--------|

  E. S +S  E. E. S +E  E   +S  E S +E  S S S S S S E E
|------------------------|-----------------------------|
|-------------4--5-(5)---|-------4-(4)-5-5-------------|
|-3--------------------5-|-(5)-4-------------5-5---4-2-|
|----3-(3)-2-------------|-----------------------------|

  +S  E. E. S +S  E. E. S
|-------------------------|
|-------------------------|
|-(2)-3-----------2--3----|
|--------3--2-(2)-------3-|

  S S E +S  E S +E  E +S  E.   E S S S E. E. S +S  E.
|----------------------------|------------------------|
|----------------------------|------------------------|
|-----------2-3-(3)----------|-2-3---3-------2-(2)-3--|
|-3---2-(2)---------3-(3)-2--|---------3--2-----------|

  E. S +E  E E. S S S E   +S  E. E E +S  E. E. S
|-----------------------|------------------------|
|-----------------------|------------------------|
|----------2-3----------|-----2--3----------2--3-|
|-3--2-(2)------3---3-2-|-(2)------3-(3)-2-------|

  +S  E. E. S +E  S S E. S
|--------------------------|
|--------------------------|
|-(3)-------2-(2)-3-3------|
|-----3--2------------3--2-|

  +E  E +S  E S +E  S S S E.   E. S +S  E. E. S +E  S S
|----------------------------|--------------------------|
|----------------------------|--------------------------|
|-----2-(2)-3-------------2--|-3-----------2--3-(3)-----|
|-(2)---------3-(3)-2---2----|----3-(3)-2-----------3-3-|

  E. S S S E +S  E S +E  E   +S  E. S S E +S  E. E. S
|--------------------------|--------------------------|
|--------------------------|------------------2--3----|
|----2---2-3-(3)---------2-|-(2)-3------------------3-|
|-2--------------3-2-(2)---|--------3-3-2-(2)---------|

  +E  E E. S S S E E S S   +E  E +S  E. E E +S  E.
|------------------------|--------------------------|
|-------2--3-3---------2-|-(2)-3-(3)------2-(2)-3---|
|-(3)-2----------3-2-3---|-----------3--2-----------|
|------------------------|--------------------------|

  E. S +S  S S S E. S +E  E
|---------------------------|
|---------------------------|
|-3--2-(2)-2---2-3----------|
|-------------------3-(3)-2-|

  +S  E S S S E +S  E. E E   +S  S S S E. S +S  E. E. S
|--------------------------|----------------------------|
|--------------------------|----------------------------|
|-----2-3---3----------2-3-|-(3)----------2-(2)-3-------|
|-(2)---------3-(3)-2------|-----3---3-2-----------3--2-|

  +E  E +S  E S +E  E +S  E.   E E +S  E. E. S +S  E.
|----------------------------|------------------------|
|-----4-(4)-5-------------4--|-5----------------------|
|-------------5-(5)-4-(4)----|---5-(5)-4--2--3-(3)----|
|-(2)------------------------|---------------------3--|

  E. S S S E E. S +E  E   +S  E. E E +S  E. S S S S
|-----------------------|---------------------------|
|-----------------------|---------------------------|
|----2-2---3----------2-|-(2)-3----------2--3-3-----|
|-2----------3--2-(2)---|--------3-2-(2)----------3-|

  +S  E. E. S +E  E S S S S
|---------------------------|
|---------------------------|
|--------2--3-(3)---------2-|
|-(3)-2-----------3-2---2---|

  +E  E +S  E S +E  E +S  E.   E. S +S  E. E. S S S E
|----------------------------|------------------------|
|----------------------------|------------------------|
|-(2)-3-(3)---------2-(2)-3--|----------2--3----------|
|-----------3-2-(2)----------|-3--2-(2)-------3-3---2-|

  E. S +E  E +S  E S S S E   +S  E. E E +S  E. E. S
|--------------------------|------------------------|
|--------------------------|------------------------|
|-2--3-(3)---------2---2-3-|-(3)------2-(2)-3-------|
|----------3-(3)-2---------|-----3--2----------3--2-|

  +E  E S S S S +E  E +S  E S
|------------------------------|
|------------------------------|
|-----2-3---3-------------2-3--|
|-(2)---------3-(3)-2-(2)------|

  +E  E +S  E. S S E +S  E.   E. S +S  E. E. S +E  E
|---------------------------|------------------------|
|---------------------------|----2-(2)-3-----------2-|
|-(3)----------2-2-3-(3)----|-------------3--2-(2)---|
|-----3-(3)-2------------3--|-2----------------------|

  +S  S S S +E  E +S  E. E E   +S  E. S S S S +S  E. E. S
|----------------------------|-----------------------------|
|-(2)-3-3-------------2--3---|--------2-2---3-(3)----------|
|---------3-(3)-2-(2)------3-|-(3)-2--------------3--2--2--|
|----------------------------|-----------------------------|

  +E  E +S  E S +E  E +S  S S S   E E +S  E. E. S S E.
|-------------------------------|----------------------|
|-------------------------------|----------------------|
|-(2)-3-(3)---------2-(2)-3-3---|---------2--3---------|
|-----------3-2-(2)-------------|-3-2-(2)-------3-3-2--|

  E. S +E  E E. S +E  E   +S  E. E E +S  S S S E. S
|-----------------------|----------------------------|
|---------------4-(4)-5-|-(5)------4-(4)-5-5---------|
|-2--3-(3)--------------|-----5--4-------------5--4--|
|----------3-2----------|----------------------------|

  +S  E. E. S +E  E S S S S
|---------------------------|
|---------------------------|
|-(4)-2--3----------2---2-3-|
|-----------3-(3)-2---------|

  +E  E +S  E S +E  E +S  E.   E. S +S  E. E. S +E  E
|----------------------------|------------------------|
|----------------------------|------------------------|
|-(3)---------2-(2)-3-(3)----|----2-(2)-3-----------2-|
|-----3-(3)-2-------------3--|-2-----------3--2-(2)---|

  S S S S +E  E +S  E S +E  E
|-----------------------------|
|-----------------------------|
|-3---3-------------2-3-(3)---|
|-------3-(3)-2-(2)---------3-|

  +S  E. E E +S  E. E. S   S S E E. S +E  E +S  E S
|------------------------|---------------------------|
|------------------------|---------------------------|
|--------2-3-(3)-------2-|-2---3----------2-(2)-3----|
|-(3)-2----------3--2----|-------3--2-(2)---------3--|

  +E  E +S  E. S S E +S  E.   E. S +S  E. E. S +E  E
|---------------------------|------------------------|
|---------------------------|------------------------|
|-----------2--3-3----------|-2--3-(3)-------2-(2)-3-|
|-(3)-2-(2)--------3-(3)-2--|----------3--2----------|

  +S  S S S +E  E +S  E. E E   +S  E. S S S S +S  E. E. S
|----------------------------|-----------------------------|
|----------------------------|-----------------------2--3--|
|-(3)-----------2-(2)-3------|-----2--3-3------------------|
|-----3-3-2-(2)----------3-2-|-(2)----------3-(3)-2--------|

  +E  E +S  E S +E  S S S E.
|----------------------------|
|-(3)---------2-(2)-3-3------|
|-----3-(3)-2-------------3--|
|----------------------------|

  E E +S  E. E. S +S  S S S   E. S +E  E E. S +E  E
|---------------------------|-----------------------|
|---2-(2)-3-----------2---2-|-3---------------------|
|-2----------3--2-(2)-------|----3-(3)-2-2--3-(3)---|
|---------------------------|---------------------3-|

  +S  E. E E +S  E S +S  E S   +S  E. E. S +E  S S E. S
|----------------------------|--------------------------|
|----------------------------|--------------------------|
|--------2-3-(3)---------0-2-|-(2)-3-----------2-2-3----|
|-(3)-2----------3-2-(2)-----|--------3--2-(2)--------3-|

  +E  E +S  E S +E  E +S  E.   E. S S E. E. S +E  E
|----------------------------|----------------------|
|-----------4-5-(5)----------|-4--5-5---------------|
|-------------------5-(5)-4--|--------5--4--2-(2)-3-|
|-(3)-2-(2)------------------|----------------------|

  E. S +E  S S S E S +E  E   +S  S E Q  H
|--------------------------|-----------------*|
|--------------------------|-----------------*|
|----------2-2---3---------|-----------------*|
|-3--2-(2)---------3-(3)-2-|-(2)-------------*|

Ok so this is pretty much the song,
not one of the most exciting songs i've tabbed.

        
Comments

@pedro_meuca (November 25, 2007 at 12:42 AM)

could you try to tab it for guitar? tks!