Gametabs
Home
Tabs
Random

Simian Segue

Average rating: 5.000

2 ratings

Composer:

Tabber:

Style:

Instrument:

Created: May 04, 2009 at 12:00 AM

            Simian Segue
Donkey Kong Country
Composed by Eveline Fischer
Tabbed by hslesperance
11/01/08

Standard Tuning

e---5--------7h8--5--------7h8--5--------------
B----------------------------------8--5----5---
G---------------------------------------7------
D----------------------------------------------
A----------------------------------------------
E----------------------------------------------

e---3--------2--------0--0----------5-7-9------
B---------------------------------5------------
G----------------------------------------------
D----------------------------------------------
A----------------------------------------------
E----------------------------------------------

e---7-5-7-9--5---------------------------------
B-----------------0-1----0-1----0-1----0-1-5---
G---------------------2------2------2------2---
D----------------------------------------------
A----------------------------------------------
E----------------------------------------------

e---5-7-9----7-5-7-9--5-15--14--12---------3---
B----------------------------------15--13------
G----------------------------------------------
D----------------------------------------------
A----------------------------------------------
E----------------------------------------------

e---2--0-------12--10--8-----------------------
B--------3--1------------12--10------8--10-----
G----------------------------------------------
D----------------------------------------------
A----------------------------------------------
E----------------------------------------------

e---3--------2--------0--0---------------------
B----------------------------------------------
G----------------------------------------------
D----------------------------------------------
A----------------------------------------------
E----------------------------------------------

e---0-0-0-0-0--2-------------------------------
B---2-2-2-2-2--2-3--3--3-3--2------------------
G---2-2-2-2-2--2-2--2--2-2--2------------------
D----------------4--4--4-4--2------------------
A----------------------------------------------
E----------------------------------------------

e----------------------------------------------
B---2-2-2-2-2--3-0--0--0-0--2------------------
G---2-2-2-2-2--2-2--2--2-2--2------------------
D---2-2-2-2-2--4-2--2--2-2--2------------------
A----------------------------------------------
E----------------------------------------------

e---12-12-12-12-12--14-------------------------
B---14-14-14-14-14--14-15--15--15-15--14-------
G---14-14-14-14-14--14-14--14--14-14--14-------
D----------------------16--16--16-16--14-------
A----------------------------------------------
E----------------------------------------------

e----------------------------------------------
B---14-14-14-14-14--15-12--12--12-12--8--------
G---14-14-14-14-14--14-14--14--14-14--14-------
D---14-14-14-14-14--16-14--14--14-14--14-------
A----------------------------------------------
E----------------------------------------------

e---10----12h13--10----12h13--10---------------
B---------------------------------13--10-------
G----------------------------------------12----
D----------------------------------------------
A----------------------------------------------
E----------------------------------------------

e----------------------------------------------
B---10--------1--------0-----------------------
G-------------------------------2--2-----------
D----------------------------------------------
A----------------------------------------------
E----------------------------------------------

e---11h12h13--12h13p12----------------------12-
B----------------------15----13------13--15----
G--------------------------------14------------
D----------------------------------------------
A----------------------------------------------
E----------------------------------------------

e----------------------------------------------
B---15-----------------------------------------
G------12--------------------------------------
D----------15--14-12--10-10--9-----------------
A-------------------------------12--12---------
E----------------------------------------------

e---5-5-5-5-5--7--3--3--3-3--2-----------------
B---7-7-7-7-7--7--3--3--3-3--3-----------------
G---7-7-7-7-7--7--2--2--2-2--2-----------------
D----------------------------------------------
A----------------------------------------------
E----------------------------------------------

e---2-2-2-2-2--3--0--0--0-0--2-----------------
B---3-3-3-3-3--3--3--3--3-3--3-----------------
G---2-2-2-2-2--2--2--2--2-2--2-----------------
D----------------------------------------------
A----------------------------------------------
E----------------------------------------------

e---17-17-17-17-17--19--15--15--15-15--14------
B---19-19-19-19-19--19--15--15--15-15--15------
G---19-19-19-19-19--19--14--14--14-14--14------
D----------------------------------------------
A----------------------------------------------
E----------------------------------------------

e---14-14-14-14-14--15--12--12--12-12--10------
B---15-15-15-15-15--15--15--15--15-15--15------
G---14-14-14-14-14--14--14--14--14-14--14------
D----------------------------------------------
A----------------------------------------------
E----------------------------------------------

e---17-----------------------------------------
B-------------------------0-1--3---------------
G---------------------0-0----------------------
D----------------------------------------------
A----------------------------------------------
E----------------------------------------------

e---0-0-1-0---------------0--0-0---------------
B------------1--------------------3-1--3--3-3--
G----------------------------------------------
D----------------------------------------------
A----------------------------------------------
E----------------------------------------------

e----------------0---------------0-3----4--5-7-
B---1-0-1--1-1-3---3-1--------4----------------
G----------------------------------------------
D----------------------------------------------
A----------------------------------------------
E----------------------------------------------

e---8--10-8--10/12--10-----------------15------
B-----------------------13-10----16-17----17---
G----------------------------------------------
D----------------------------------------------
A----------------------------------------------
E----------------------------------------------

e-------------------10-------------------------
B---16-15-13--11-12----12-11-10-----10--13-----
G-------------------------------12-------------
D----------------------------------------------
A----------------------------------------------
E----------------------------------------------

e---10/12--------------------------------------
B----------15-13-------------------------------
G----------------------------------------------
D----------------------------------------------
A----------------------------------------------
E----------------------------------------------

h - hammer on
/ - slide up

        
Comments

@Cutlip242 (December 07, 2011 at 2:00 AM)

map song was my all time favorite video game song ever