Gametabs
Home
Tabs
Random

Jungle Hijinx

Average rating: 4.167

6 ratings

Composer:

Tabber:

Style:

Instrument:

Created: October 03, 2007 at 12:00 AM

            Donkey Kong Country
Jungle Hijinx
Composed by Dave Wise

2/23/07

Starting at about 00:33

G------------------------------------------------------------
D------------------------------------------------------------
A--0--0-----0--0-------0-1--0--0-----0--0--------------------
E--------------------3------------------------3--3-----3--3--

G---------------------------------------------------------
D---------------------------------------------------------
A----0-1--0-----0-----------------0-----0-----------------
E--3---------3-----1--0--3--1--0-----3-----1--0--3--1--0--

G--------------------------------------------------
D-----0-----------------------0--------------------
A--------3-----2--------2--------3-----2--------2--
E--3--------3-----3--1-----3--------3-----3--1-----

G-----------------------------------------------------
D-----------------------------------------------------
A--0--0---------------------0--0------------3-2--0----
E--------0--0--1--1-3--1-3--------0--0--1-1--------3-- x2

G--------------------------------------------------
D--------------------------------------------------
A--0--0--------0-----------0--0--3--3--2-----0--2--
E--------0--0----0-0--1-3----------------4-4-------

G-------------------------------------------------
D-------------------------------------------------
A----------------------2-----------2--0-----------
E--0--0--4--4--4-0-2-4----0--4--5--------0--1--3--

G--------------------------------------------------
D--------------------------------------------------
A--0--0--------0-----------0--0--3--3--2-----0--2--
E--------0--0----0-0--1-3----------------4-4-------

G----------------------------------------------
D----------------------------------------------
A----------------------2-----------2--0--------
E--0--0--4--4--4-0-2-4----0--4--5-------0-4-5--

And ending at about 1:23

Then this little thing on the end after the little drum solo...

G----------------------
D----------------------
A----------------------
E--0----0--2--3--4--5--

        
Comments

@Link Strife07 (February 27, 2011 at 5:24 PM)

Beautiful!