Gametabs
Home
Tabs
Random

Rockface Rumble

Average rating: 5.000

1 ratings

Composer:

Tabber:

Style:

Instrument:

Created: October 11, 2011 at 12:00 AM

            Rockface Rumble
Donkey Kong Country 3
Composer: David Wise
Tabbed by Bacardibreezer
9/24/11

Tabbed for solo guitar

e|--------------------------------------------------|
B|--------------------------------------------------|
G|--------------------------------------------------|
D|--15/17-------------------------------------------|
A|--13/15-------------------------------------------|
E|--------------------------------------------------|

Rest four measures

e|--20----18b19--20------------------16b18--------------------------|
B|---------------------18b20~----------------16b17--16b17-----------|
G|--------------------------------------------------------pb17r16---|
D|------------------------------------------------------------------|
A|------------------------------------------------------------------|
E|------------------------------------------------------------------|

Rest two measures

e|-----------------------------------------------------------------------|
B|-----------------------------------------------------------------------|
G|-----------------------------------------------------------------------|
D|--10-10-10-10-10---10-10---10-10------10-10-10-10-10---10-10---10-10---|
A|--10-10-10-10-13---13-13---13-13------12-12-12--8-10---10-10----8-10---|
E|-----------------------------------------------------------------------| x2

e|--18~~-------------------------16-------------------|
B|--------------------16--19~--------18~--------16~---|
G|------------15--19------------------------18--------|
D|----------------------------------------------------|
A|----------------------------------------------------|
E|----------------------------------------------------|

e|---------------------16------------------18~----19--18--16--------|
B|----------16--19~--------18~----------16--------------------19~---|
G|--15--19------------------------18-18-----------------------------|
D|------------------------------------------------------------------|
A|------------------------------------------------------------------|
E|------------------------------------------------------------------|

e|-------------------16---------------------|
B|--------16-19~---------18-----------16~---|
G|--15-19--------------------18-------------|
D|------------------------------------------|
A|------------------------------------------|
E|------------------------------------------|
        
Comments

@karathrow (October 12, 2011 at 4:07 AM)

Someone's on a DKC binge. :)