Gametabs
Home
Tabs
Random

Stilt Village

Average rating: No ratings

Composer:

Tabber:

Style:

Created: June 25, 2012 at 12:00 AM

            Stilt Village
Donkey Kong Country 3 (GBA)
Composed by David Wise
Tabbed by hslesperance
6/25/12

Standard Tuning

The midi doesn't do this song justice. Find a youtube audio or something.
I basically wrote this just for that 4 measure acoustic guitar loop.


  E  S S  E  S  S S  E E  S  E    E  S S  E  E S  E E  S S S
|---10-8-10-10-10-8------------|-----------------------------|
|-------------------10-8-10-11-|-10-----------------8--------|
|------------------------------|----10-9-10-10-9-10---10-9-7-|
|------------------------------|-----------------------------|
|------------------------------|-----------------------------|
|------------------------------|-----------------------------|


  E  S S  E  S  S S  E E  S  E    E  S S  E  E S  E E  S S S
|---10-8-10-10-10-8------------|-------------------------------|
|-------------------10-8-10-11-|-10-----------------8----------|
|------------------------------|----10-9-10-10-9-10---10-9-7---|
|------------------------------|-------------------------------|
|------------------------------|-------------------------------|
|------------------------------|-------------------------------|


  W          W          W          W
|----------|----------|----------|------|
|----------|----------|----------|------|
|----------|----------|----------|------|
|----------|----------|----------|------|
|----------|----------|----------|------|
|----------|----------|----------|------|


  H    S  S  E  E  E   S  S  E  E  E S  S  E  E  E
|--------------13-12-|---------13-15------13-12----|
|--------13-15-------|---13-15---------13-------13-|
|--------------------|-----------------------------|
|--------------------|-----------------------------|
|--------------------|-----------------------------|
|--------------------|-----------------------------|


  H    S  S  E  E  E   S  S  E  E  E S  S  E  E  E
|--------------13-12-|---------13-15------13-12----|
|--------13-15-------|---13-15---------13-------13-|
|--------------------|-----------------------------|
|--------------------|-----------------------------|
|--------------------|-----------------------------|
|--------------------|-----------------------------|


  W          W          H    S  S  E  E  E   S  S  E  E  E S  S  E  E  E
|----------|----------|--------------13-12-|---------13-15------13-12-----|
|----------|----------|--------13-15-------|---13-15---------13-------13--|
|----------|----------|--------------------|------------------------------|
|----------|----------|--------------------|------------------------------|
|----------|----------|--------------------|------------------------------|
|----------|----------|--------------------|------------------------------|


  Q  Q  S S S E S E   Q  Q  S E S Q    Q  Q  S S S E S E   Q  Q  S S E E E
|-------------------|---------5------|-------------------|-----------------|
|-6---------5-6-5---|-6-------6---8--|-6---------5-6-5---|-6---------------|
|---------5-------5-|-------------7--|---------5-------5-|---------5---5---|
|-------5-----------|-------7---7----|-------5-----------|---------5---5---|
|-5-----------------|-5--------------|-5-----------------|-5---------------|
|-------------------|----------------|-------------------|-------8---8---8-|


  Q  Q  S S S E S E   Q  Q  S E S Q    Q  Q  S S S E S E   Q  Q  S S E E E
|-------------------|---------5------|-------------------|-----------------|
|-6---------5-6-5---|-6-------6---8--|-6---------5-6-5---|-6---------------|
|---------5-------5-|-------------7--|---------5-------5-|---------5---5---|
|-------5-----------|-------7---7----|-------5-----------|---------5---5---|
|-5-----------------|-5--------------|-5-----------------|-5---------------|
|-------------------|----------------|-------------------|-------8---8---8-|


  E  S S  E  S  S S  E E  S  E    E  S S  E  E S  E E  S S S
|---10-8-10-10-10-8------------|-----------------------------|
|-------------------10-8-10-11-|-10-----------------8--------|
|------------------------------|----10-9-10-10-9-10---10-9-7-|
|------------------------------|-----------------------------|
|------------------------------|-----------------------------|
|------------------------------|-----------------------------|


  E  S S  E  S  S S  E E  S  E    E  S S  E  E S  E E  S S S
|---10-8-10-10-10-8------------|-----------------------------|
|-------------------10-8-10-11-|-10-----------------8--------|
|------------------------------|----10-9-10-10-9-10---10-9-7-|
|------------------------------|-----------------------------|
|------------------------------|-----------------------------|
|------------------------------|-----------------------------|


  Q   S  S  S  E.      E    E    E    E.  E.    E.    +E.   Q
|----------17-15-------------------|---------------------------|
|----15-18------------18---17------|-15------------------------|
|-------------------------------17-|-----17----14----(14)------|
|----------------------------------|---------------------------|
|----------------------------------|---------------------------|
|----------------------------------|---------------------------|


  Q   E  S  E.      E    E    S  S    +Q   H.
|-------17-15------17---18---15-17-|-(17)----------------|
|----15----------------------------|---------------------|
|----------------------------------|---------------------|
|----------------------------------|---------------------|
|----------------------------------|---------------------|
|----------------------------------|---------------------|


  Q   S  S  S  E.      E    E    E    E.  E.    E.    +E.   E  E
|----------17-15-----------15---17-|-----------------------------|
|----15-18------------18-----------|-18--17----15----(15)-----17-|
|----------------------------------|-----------------------------|
|----------------------------------|-----------------------------|
|----------------------------------|-----------------------------|
|----------------------------------|-----------------------------|


   E.  E.    E  E.      E.    E    H     H
|-----------15------------------|------------------|
|-18--15-------17------------17-|-15---------------|
|----------------------17-------|------------------|
|-------------------------------|------------------|
|-------------------------------|------------------|
|-------------------------------|------------------|


  E  S  S  E  E  Q   E  S  S    +Q   H.
|----------------------------|---------------|
|---------15-18-17-----------|---------------|
|---15-17-----------17----14-|-(14)----------|
|----------------------17----|---------------|
|----------------------------|---------------|
|----------------------------|---------------|


  E  S  S  E  E  Q   E  S  S    +Q.    S  E.  S  Q  S
|----------------------15-17-|-(17)---18-17--18-17-----|
|---------15-18-17--18-------|-------------------------|
|---15-17--------------------|-------------------------|
|----------------------------|-------------------------|
|----------------------------|-------------------------|
|----------------------------|-------------------------|


  E  S  S  E  E  Q   E  S  S    +Q   H.
|----------------------------|---------------|
|---------15-18-17-----------|---------------|
|---15-17-----------17----14-|-(14)----------|
|----------------------17----|---------------|
|----------------------------|---------------|
|----------------------------|---------------|


  E  S  S  E  E  Q   E  S  S    +Q.    S  E.  S  Q  S
|----------------------15----|-------------------------|
|---------15-18-17--18----17-|-(17)---18-17--18-17-----|
|---14-15--------------------|-------------------------|
|----------------------------|-------------------------|
|----------------------------|-------------------------|
|----------------------------|-------------------------|


  Q  Q  S S S E S E   Q  Q  S E S Q    Q  Q  S S S E S E   Q  Q  S S E E E
|-------------------|---------5------|-------------------|-----------------|
|-6---------5-6-5---|-6-------6---8--|-6---------5-6-5---|-6---------------|
|---------5-------5-|-------------7--|---------5-------5-|---------5---5---|
|-------5-----------|-------7---7----|-------5-----------|---------5---5---|
|-5-----------------|-5--------------|-5-----------------|-5---------------|
|-------------------|----------------|-------------------|-------8---8---8-|


  Q  Q  S S S E S E   Q  Q  S E S Q    Q  Q  S S S E S E   Q  Q  S S E E E
|-------------------|---------5------|-------------------|-----------------|
|-6---------5-6-5---|-6-------6---8--|-6---------5-6-5---|-6---------------|
|---------5-------5-|-------------7--|---------5-------5-|---------5---5---|
|-------5-----------|-------7---7----|-------5-----------|---------5---5---|
|-5-----------------|-5--------------|-5-----------------|-5---------------|
|-------------------|----------------|-------------------|-------8---8---8-|


  E  E  E  E  Q   E  S  S    +E   E  E  S  E.  Q.
|---------12-13--12----10-|-(10)-13-12-13-12--10----|
|---10-13-----------13----|-------------------------|
|-------------------------|-------------------------|
|-------------------------|-------------------------|
|-------------------------|-------------------------|
|-------------------------|-------------------------|


  E  E  E  E  Q   E  S  S    +E   E  E  S  E.  Q.
|------------15-----15----|------15----15-----------|
|------15-18-----18----17-|-(17)----18----18--17----|
|---15--------------------|-------------------------|
|-------------------------|-------------------------|
|-------------------------|-------------------------|
|-------------------------|-------------------------|


  E  E  E  E  Q   E  S  S    +E   E  E  S  E.  E  E  S  S
|---17-15-17-15-----------|-------------------15-17-------|
|----------------18-17-18-|-(18)-18-15-17-18--------18-15-|
|-------------------------|-------------------------------|
|-------------------------|-------------------------------|
|-------------------------|-------------------------------|
|-------------------------|-------------------------------|


   +E   E  E  E  Q   E  S  S    +E   E  E  S  E.  E  E  S  S
|---------------15-----15----|-------------------17-18-15-17-|
|-(15)-18-15-18-----18----17-|-(17)-17-15-17-18--------------|
|----------------------------|-------------------------------|
|----------------------------|-------------------------------|
|----------------------------|-------------------------------|
|----------------------------|-------------------------------|


   +E   E  E  S  E.  E  E  S  S    +H     H      W          W
|-(17)-21----21-22--24-25-24-22-|-(22)---------|----------|------*|
|---------23--------------------|--------------|----------|------*|
|-------------------------------|--------------|----------|------*|
|-------------------------------|--------------|----------|------*|
|-------------------------------|--------------|----------|------*|
|-------------------------------|--------------|----------|------*|

Octave down of last measure

   +E  E  E S  E.  E  E  S  S    +H     H      W          W
|-(17)-9----9-10--12-13-12-10-|-(10)---------|----------|------*|
|--------11-------------------|--------------|----------|------*|
|-----------------------------|--------------|----------|------*|
|-----------------------------|--------------|----------|------*|
|-----------------------------|--------------|----------|------*|
|-----------------------------|--------------|----------|------*|




Piano - Drop D Bass or Guitar (DADG), (DADGBe)

|----------|----------|----------|------|
|----------|----------|----------|------|
|----------|----------|----------|------|
|----------|----------|----------|------|


  W          W          W          W
|----------|----------|----------|------|
|----------|----------|----------|------|
|----------|----------|----------|------|
|----------|----------|----------|------|


  W          W          W          W
|----------|----------|----------|------|
|----------|----------|----------|------|
|----------|----------|----------|------|
|----------|----------|----------|------|


  E. E. E +H       +W           E. E. E +H       +W
|----------------|------------|----------------|--------|
|----------------|------------|----------------|--------|
|-3--3--3-(3)----|-(3)--------|-5--5--5-(5)----|-(5)----|
|----------------|------------|----------------|--------|


  W          W          W          W
|----------|----------|----------|------|
|----------|----------|----------|------|
|----------|----------|----------|------|
|----------|----------|----------|------|


  W          W          W          W
|----------|----------|----------|------|
|----------|----------|----------|------|
|----------|----------|----------|------|
|----------|----------|----------|------|


  W          W          W          W
|----------|----------|----------|------|
|----------|----------|----------|------|
|----------|----------|----------|------|
|----------|----------|----------|------|


  W          W          W          W
|----------|----------|----------|------|
|----------|----------|----------|------|
|----------|----------|----------|------|
|----------|----------|----------|------|


  W          W          W          W
|----------|----------|----------|------|
|----------|----------|----------|------|
|----------|----------|----------|------|
|----------|----------|----------|------|


  H.      E S S   +W           H.      E S S   +W
|---------------|------------|---------------|--------|
|---------------|------------|---------------|--------|
|-1-------1-3-5-|-(5)--------|-1-------1-3-5-|-(5)----|
|---------------|------------|---------------|--------|


  H.      E S S   +W           H    H      Q  Q  Q  Q
|---------------|------------|-----------|--------------|
|---------------|------------|-----------|--------------|
|-1-------1-3-5-|-(5)--------|-----------|--------------|
|---------------|------------|-5----5----|-7--7--7--7---|


  W          W          W          W
|----------|----------|----------|------|
|----------|----------|----------|------|
|----------|----------|----------|------|
|-0--------|----------|----------|------|


  W          W          W          W
|----------|----------|----------|------|
|----------|----------|----------|------|
|----------|----------|----------|------|
|----------|----------|----------|------|


  H.      +E  E   H.      +E  E   H.      +E  E   H.      +E  E
|---------------|---------------|---------------|---------------|
|---------------|---------------|---------------|---------------|
|---------------|-5-------(5)-5-|---------------|-3-------(3)-3-|
|-7-------(7)-7-|---------------|-8-------(8)-8-|---------------|


  H.      +E  E   H.      +E  E   H.      +E  E   Q.   E Q.   E
|---------------|---------------|---------------|---------------|
|---------------|---------------|---------------|---------------|
|---------------|-5-------(5)-5-|---------------|---------------|
|-7-------(7)-7-|---------------|-8-------(8)-8-|-7----7-7----7-|


  Q.   E Q  Q    W          +W           W
|--------------|----------|------------|------*|
|--------------|----------|------------|------*|
|--------------|----------|------------|------*|
|-7----7-7--7--|-0--------|-(0)--------|------*|

W - whole
H - half
Q - quarter
E - 8th
S - 16th
+ - note tied to previous
. - note dotted

        
Comments

No comments yet