Gametabs
Home
Tabs
Random

Roller Coaster

Average rating: 5.000

1 ratings

Composer:

Tabber:

Style:

Instrument:

Created: August 04, 2012 at 12:00 AM

            Game: Donkey Kong Country 2: Diddy Kong's Quest
Song: Roller Coaster (Disco Train)
Composer: David Wise
Tabber: Luck4s

Starts at 0:28

G|--------------------3---3---5------|
D|----5---5---3----------------------|
A|--------------1-0-1---1---3---3-5--|
E|--3---3---3------------------------|

G|--------------------3---3----------|
D|----5---5---3---------------3------|
A|--------------1-0-1---1---------1--|
E|--3---3---3---------------1---1----|
        
Comments

No comments yet