Gametabs
Home
Tabs
Random

Hot-Head Bop & Stickerbrush Symphony

Average rating: No ratings

Composer:

Tabber:

Style:

Instrument:

Created: December 14, 2014 at 12:00 AM

            Hot Head Hop & Stickerbrush Symphony (Hashel05 Medley)
Donkey Kong Country 2
Tempo = 105
Please download the GP5 file for all the tracks :)

MELODY

E |----|----|----|----|----|----|----|----|----|----|-------|-------|-------|
B |----|----|----|----|----|----|----|----|----|----|-------|-------|-------|
G |----|----|----|----|----|----|----|----|----|----|-------|-------|-------|
D |----|----|----|----|----|----|----|----|----|----|-------|-------|-------|
A |----|----|----|----|----|----|----|----|----|----|-------|-------|-------|
E |----|----|----|----|----|----|----|----|----|----|-------|-------|-------|


-------|----------------------------|----|-----------15L------15------|----|
-------|--13h12h13------------------|----|--13h12h13------------------|----|
-------|-----------12L------12------|----|----------------------------|----|
-------|----------------------------|----|----------------------------|----|
-------|----------------------------|----|----------------------------|----|
-------|----------------------------|----|----------------------------|----|


----------------------------|----|-----------15L------15------|----|
--13h12h13------------------|----|--13h12h13------------------|----|
-----------12L------12------|----|----------------------------|----|
----------------------------|----|----------------------------|----|
----------------------------|----|----------------------------|----|
----------------------------|----|----------------------------|----|


----------------------------------------------------|
--------13----12----13-12---------------------------|
-----------------------------14L---------14---------|
----------------------------------------------------|
----------------------------------------------------|
----------------------------------------------------|


----------------------------------------------------|
--------13----12----13-15L---15-13----12----13------|
----------------------------------------------------|
----------------------------------------------------|
----------------------------------------------------|
----------------------------------------------------|


----------------------------------------------------|-------|
--12------------------------------------------------|-------|
--------14----14----12-14L14------------------------|-------|
----------------------------------------------------|-------|
----------------------------------------------------|-------|
----------------------------------------------------|-------|


----------------------------------------------------|----------------|
--------13----12----13-12---------------------------|--15-13-12-13---|
-----------------------------14L---------14---------|----------------|
----------------------------------------------------|----------------|
----------------------------------------------------|----------------|
----------------------------------------------------|----------------|


----------------------------------------------------|----|----|----|----|----|
--12------------------------------------------------|----|----|----|----|----|
--------14----14----12-14L14------------------------|----|----|----|----|----|
----------------------------------------------------|----|----|----|----|----|
----------------------------------------------------|----|----|----|----|----|
----------------------------------------------------|----|----|----|----|----|


-----12-12----12----12-12----12----12-12----12-12---|
-----13-13----13----13-13----13----13-13----13-13---|
-----14-14----14----14-14----14----14-14----14-14---|
----------------------------------------------------|
----------------------------------------------------|
----------------------------------------------------|


-----12-12----12----12-12----12----12-12----12-12---|
-----13-13----13----13-13----13----13-13----13-13---|
-----14-14----14----14-14----14----14-14----14-14---|
----------------------------------------------------|
----------------------------------------------------|
----------------------------------------------------|


-----15-15----15----15-15----15----15-15----15-15---|
-----17-17----17----17-17----17----17-17----17-17---|
-----16-16----16----16-16----16----16-16----16-16---|
----------------------------------------------------|
----------------------------------------------------|
----------------------------------------------------|


-----15-15----15----15-15----15----15-15----15-15---|
-----17-17----17----17-17----17----17-17----17-17---|
-----16-16----16----16-16----16----16-16----16-16---|
----------------------------------------------------|
----------------------------------------------------|
----------------------------------------------------|


-----12-12----12----12-12----12----12-12----12-12---|
-----13-13----13----13-13----13----13-13----13-13---|
-----14-14----14----14-14----14----14-14----14-14---|
----------------------------------------------------|
----------------------------------------------------|
----------------------------------------------------|


-----12-12----12----12-12----12----12-12----12-12---|
-----13-13----13----13-13----13----13-13----13-13---|
-----14-14----14----14-14----14----14-14----14-14---|
----------------------------------------------------|
----------------------------------------------------|
----------------------------------------------------|


-----15-15----15----15-15----15----15-15----15-15---|
-----17-17----17----17-17----17----17-17----17-17---|
-----16-16----16----16-16----16----16-16----16-16---|
----------------------------------------------------|
----------------------------------------------------|
----------------------------------------------------|


-----15-15----15----15-15----15----15-15----15-15---|----|
-----17-17----17----17-17----17----17-17----17-17---|----|
-----16-16----16----16-16----16----16-16----16-16---|----|
----------------------------------------------------|----|
----------------------------------------------------|----|
----------------------------------------------------|----|


--------------------------8-------------------------|
--------------------8--------------8----------------|
--------9-----10----------------------------10------|
----------------------------------------------------|
----------------------------------------------------|
----------------------------------------------------|


----------------------------|
----------------------------|
--9-------------------------|
--------10-10L10------------|
----------------------------|
----------------------------|


--------------------------8-------------------------|
--------------------8--------------8----------------|
--------9-----10----------------------------10------|
----------------------------------------------------|
----------------------------------------------------|
----------------------------------------------------|


----------------------------|
----------------------------|
--9-----10-9----------------|
-----------------10---------|
----------------------------|
----------------------------|


--------------------------8--------8--------10------|--10---|-------|-------|
--------------------8-------------------------------|-------|-------|-------|
--------9-----10------------------------------------|-------|-------|-------|
----------------------------------------------------|-------|-------|-------|
----------------------------------------------------|-------|-------|-------|
----------------------------------------------------|-------|-------|-------|


----------------------------------------------------|-------|
--------------------8-----8-------------------------|-------|
--------9-----10-------------------10-------9-------|--9----|
----------------------------------------------------|-------|
----------------------------------------------------|-------|
----------------------------------------------------|-------|


----------------------------------------------------|
--------------------8-----8-------------------------|
--------9-----10-------------------10-------9-------|
----------------------------------------------------|
----------------------------------------------------|
----------------------------------------------------|


----------------------------|
----------------------------|
--9-----10-9----------------|
-----------------10---------|
----------------------------|
----------------------------|


----------------------------------------------------|-------|
--------------------8-----8-------------------------|-------|
--------9-----10-------------------10-------9-------|--7----|
----------------------------------------------------|-------|
----------------------------------------------------|-------|
----------------------------------------------------|-------|


----------------------------|-------|-------|-------|-------|
----------------------------|-------|-------|-------|-------|
-----7--7--9--10-9--7-------|-------|-------|-------|-------|
----------------------------|-------|-------|-------|-------|
----------------------------|-------|-------|-------|-------|
----------------------------|-------|-------|-------|-------|


----------------------------|----|-----------15L------15------|----|
--13h12h13------------------|----|--13h12h13------------------|----|
-----------12L------12------|----|----------------------------|----|
----------------------------|----|----------------------------|----|
----------------------------|----|----------------------------|----|
----------------------------|----|----------------------------|----|


----------------------------|----|-----------15L------15------|----|----|----|
--13h12h13------------------|----|--13h12h13------------------|----|----|----|
-----------12L------12------|----|----------------------------|----|----|----|
----------------------------|----|----------------------------|----|----|----|
----------------------------|----|----------------------------|----|----|----|
----------------------------|----|----------------------------|----|----|----|


----|----|----|----|----|----|
----|----|----|----|----|----|
----|----|----|----|----|----|
----|----|----|----|----|----|
----|----|----|----|----|----|
----|----|----|----|----|----|


-----12-12----12----12-12----12----12-12----12-12---|
-----13-13----13----13-13----13----13-13----13-13---|
-----14-14----14----14-14----14----14-14----14-14---|
----------------------------------------------------|
----------------------------------------------------|
----------------------------------------------------|


-----12-12----12----12-12----12----12-12----12-12---|
-----13-13----13----13-13----13----13-13----13-13---|
-----14-14----14----14-14----14----14-14----14-14---|
----------------------------------------------------|
----------------------------------------------------|
----------------------------------------------------|


-----15-15----15----15-15----15----15-15----15-15---|
-----17-17----17----17-17----17----17-17----17-17---|
-----16-16----16----16-16----16----16-16----16-16---|
----------------------------------------------------|
----------------------------------------------------|
----------------------------------------------------|


-----15-15----15----15-15----15----15-15----15-15---|
-----17-17----17----17-17----17----17-17----17-17---|
-----16-16----16----16-16----16----16-16----16-16---|
----------------------------------------------------|
----------------------------------------------------|
----------------------------------------------------|


-----12-12----12----12-12----12----12-12----12-12---|
-----13-13----13----13-13----13----13-13----13-13---|
-----14-14----14----14-14----14----14-14----14-14---|
----------------------------------------------------|
----------------------------------------------------|
----------------------------------------------------|


-----12-12----12----12-12----12----12-12----12-12---|
-----13-13----13----13-13----13----13-13----13-13---|
-----14-14----14----14-14----14----14-14----14-14---|
----------------------------------------------------|
----------------------------------------------------|
----------------------------------------------------|


-----15-15----15----15-15----15----15-15----15-15---|
-----17-17----17----17-17----17----17-17----17-17---|
-----16-16----16----16-16----16----16-16----16-16---|
----------------------------------------------------|
----------------------------------------------------|
----------------------------------------------------|


-----15-15----15----15-15----15----15-15----15-15---|
-----17-17----17----17-17----17----17-17----17-17---|
-----16-16----16----16-16----16----16-16----16-16---|
----------------------------------------------------|
----------------------------------------------------|
----------------------------------------------------|


-----12-12----12----12-12----12----12-12----12-12---|
-----13-13----13----13-13----13----13-13----13-13---|
-----14-14----14----14-14----14----14-14----14-14---|
----------------------------------------------------|
----------------------------------------------------|
----------------------------------------------------|


-----12-12----12----12-12----12----12-12----12-12---|
-----13-13----13----13-13----13----13-13----13-13---|
-----14-14----14----14-14----14----14-14----14-14---|
----------------------------------------------------|
----------------------------------------------------|
----------------------------------------------------|


-----15-15----15----15-15----15----15-15----15-15---|
-----17-17----17----17-17----17----17-17----17-17---|
-----16-16----16----16-16----16----16-16----16-16---|
----------------------------------------------------|
----------------------------------------------------|
----------------------------------------------------|


-----15-15----15----15-15----15----15-15----15-15---|
-----17-17----17----17-17----17----17-17----17-17---|
-----16-16----16----16-16----16----16-16----16-16---|
----------------------------------------------------|
----------------------------------------------------|
----------------------------------------------------|


----------------------------|----|-----------15L------15------|----|
--13h12h13------------------|----|--13h12h13------------------|----|
-----------12L------12------|----|----------------------------|----|
----------------------------|----|----------------------------|----|
----------------------------|----|----------------------------|----|
----------------------------|----|----------------------------|----|


----------------------------|----|-----------15L------15------|----|----|----|
--13h12h13------------------|----|--13h12h13------------------|----|----|----|
-----------12L------12------|----|----------------------------|----|----|----|
----------------------------|----|----------------------------|----|----|----|
----------------------------|----|----------------------------|----|----|----|
----------------------------|----|----------------------------|----|----|----|


----|----|----|----|----|----|----|----|----|----|----|----|----|----|
----|----|----|----|----|----|----|----|----|----|----|----|----|----|
----|----|----|----|----|----|----|----|----|----|----|----|----|----|
----|----|----|----|----|----|----|----|----|----|----|----|----|----|
----|----|----|----|----|----|----|----|----|----|----|----|----|----|
----|----|----|----|----|----|----|----|----|----|----|----|----|----|


----------------------------------------------------|
--------------------------15----17----15-------15L--|
--------------------------------------------17------|
----------------------------------------------------|
----------------------------------------------------|
----------------------------------------------------|


----------------------------------------------------|
--15----------------------15----17----15-------15L--|
--------------------------------------------17------|
----------------------------------------------------|
----------------------------------------------------|
----------------------------------------------------|


--------------------15.-----|
--15----------15-17----17.--|
----------------------------|
----------------------------|
----------------------------|
----------------------------|


----------------------------------------------------|
--15.---------------17h15h13----------12----13------|
----------------------------------------------------|
----------------------------------------------------|
----------------------------------------------------|
----------------------------------------------------|


--17.------------17.--------|-----------------------15.--|
-----------------------17---|--15------------------------|
----------------------------|-----------------12-12------|
----------------------------|----------------------------|
----------------------------|----------------------------|
----------------------------|----------------------------|


--15.---------------------15.------17.------19.-----|
----------------------------------------------------|
----------------------------------------------------|
----------------------------------------------------|
----------------------------------------------------|
----------------------------------------------------|


--19.---20.19.---15.---17.--|----|
--------------------17.-----|----|
----------------------------|----|
----------------------------|----|
----------------------------|----|
----------------------------|----|


----------------------------------------------------|--17------|----|----|
--------------------13----12-------13-------17------|----------|----|----|
----------------------------------------------------|----------|----|----|
----------------------------------------------------|----------|----|----|
----------------------------------------------------|----------|----|----|
----------------------------------------------------|----------|----|----|


----------------------------------------------------|--17------|----|----|----||
--------------------13----12-------13-------17------|----------|----|----|----||
----------------------------------------------------|----------|----|----|----||
----------------------------------------------------|----------|----|----|----||
----------------------------------------------------|----------|----|----|----||
----------------------------------------------------|----------|----|----|----||


HARMONY


E |----|----|----|----|----|----|----|----|----|----|----------------|
B |----|----|----|----|----|----|----|----|----|----|----------------|
G |----|----|----|----|----|----|----|----|----|----|----------------|
D |----|----|----|----|----|----|----|----|----|----|----------------|
A |----|----|----|----|----|----|----|----|----|----|----------------|
E |----|----|----|----|----|----|----|----|----|----|----------------|


----------------|----------------|----------------|----------------|
----------------|----------------|----------------|----------------|
----------------|----------------|----------------|----------------|
----------------|----------------|----------------|----------------|
----------------|----------------|----------------|----------------|
----------------|----------------|----------------|----------------|


----------------|----------------|----------------|----------------------------|
----------------|----------------|----------------|-----------8----------------|
----------------|----------------|----------------|-----9--7--------7----------|
----------------|----------------|----------------|--7-----------10----9--10---|
----------------|----------------|----------------|----------------------------|
----------------|----------------|----------------|----------------------------|


----------------------------|----------------------------|
-----------8----------------|-----------8----------------|
-----9--7--------7----------|-----9--7--------7----------|
--7-----------10----9--10---|--7-----------10----9--10---|
----------------------------|----------------------------|
----------------------------|----------------------------|


----------------------------|----------------------------|
-----------8----------------|-----------8----------------|
-----9--7--------7----------|-----9--7--------7----------|
--7-----------10----9--10---|--7-----------10----9--10---|
----------------------------|----------------------------|
----------------------------|----------------------------|


----------------------------|----------------------------|
-----------8----------------|-----------8----------------|
-----9--7--------7----------|-----9--7--------7----------|
--7-----------10----9--10---|--7-----------10----9--10---|
----------------------------|----------------------------|
----------------------------|----------------------------|


----------------------------|----------------------------|
-----------8----------------|-----------8----------------|
-----9--7--------7----------|-----9--7--------7----------|
--7-----------10----9--10---|--7-----------10----9--10---|
----------------------------|----------------------------|
----------------------------|----------------------------|


----------------------------|----------------------------|
-----------8----------------|-----------8----------------|
-----9--7--------7----------|-----9--7--------7----------|
--7-----------10----9--10---|--7-----------10----9--10---|
----------------------------|----------------------------|
----------------------------|----------------------------|


----------------------------|
-----------8----------------|
-----9--7--------7----------|
--7-----------10----9--10---|
----------------------------|
----------------------------|


----------------------------------------------------|
--5--------5--------5--------5--------6--------6----|
-----5--------5--------5--------5--------5----------|
--------7--------7--------7--------7--------7-------|
----------------------------------------------------|
----------------------------------------------------|


----------------------------------------------------|
--8--------8--------8--------8--------8-------------|
-----5--------5--------5--------5--------5----------|
--------7--------7--------7--------7--------7-------|
----------------------------------------------------|
----------------------------------------------------|


----------------------------------------------------|
--5--------5--------5--------5--------6--------6----|
-----5--------5--------5--------5--------5----------|
--------7--------7--------7--------7--------7-------|
----------------------------------------------------|
----------------------------------------------------|


----------------------------------------------------|
--8--------8--------8--------8--------8-------------|
-----5--------5--------5--------5--------5----------|
--------7--------7--------7--------7--------7-------|
----------------------------------------------------|
----------------------------------------------------|


----------------------------------------------------|
--5--------5--------5--------5--------6--------6----|
-----5--------5--------5--------5--------5----------|
--------7--------7--------7--------7--------7-------|
----------------------------------------------------|
----------------------------------------------------|


----------------------------------------------------|
--8--------8--------8--------8--------8-------------|
-----5--------5--------5--------5--------5----------|
--------7--------7--------7--------7--------7-------|
----------------------------------------------------|
----------------------------------------------------|


----------------------------------------------------|
--5--------5--------5--------5--------6--------6----|
-----5--------5--------5--------5--------5----------|
--------7--------7--------7--------7--------7-------|
----------------------------------------------------|
----------------------------------------------------|


----------------------------------------------------|-------|-------|-------|
--8--------8--------8--------8--------8-------------|-------|-------|-------|
-----5--------5--------5--------5--------5----------|-------|-------|-------|
--------7--------7--------7--------7--------7-------|-------|-------|-------|
----------------------------------------------------|-------|-------|-------|
----------------------------------------------------|-------|-------|-------|


-------|----------------------------|----------------------------|
-------|----------------------------|----------------------------|
-------|--9-----9--10-9-----9-------|--9-----9--10-9-----9-------|
-------|-----10----------7-----10---|-----10----------7-----10---|
-------|----------------------------|----------------------------|
-------|----------------------------|----------------------------|


----------------------------|----------------------------|
----------------------------|----------------------------|
--9-----9--10-9-----9-------|--9-----9--10-9-----9-------|
-----10----------7-----10---|-----10----------7-----10---|
----------------------------|----------------------------|
----------------------------|----------------------------|


----------------------------|----------------------------|
----------------------------|----------------------------|
--9-----9--10-9-----9-------|--9-----9--10-9-----9-------|
-----10----------7-----10---|-----10----------7-----10---|
----------------------------|----------------------------|
----------------------------|----------------------------|


----------------------------|----------------------------|
----------------------------|----------------------------|
--7-----7--9--7-----7-------|--7-----7--9--7-----7-------|
-----9-----------9-----9----|-----9-----------9-----9----|
----------------------------|----------------------------|
----------------------------|----------------------------|


----------------------------|----------------------------|
----------------------------|----------------------------|
--9-----9--10-9-----9-------|--9-----9--10-9-----9-------|
-----10----------7-----10---|-----10----------7-----10---|
----------------------------|----------------------------|
----------------------------|----------------------------|


----------------------------|----------------------------|
----------------------------|----------------------------|
--9-----9--10-9-----9-------|--9-----9--10-9-----9-------|
-----10----------7-----10---|-----10----------7-----10---|
----------------------------|----------------------------|
----------------------------|----------------------------|


----------------------------|----------------------------|
----------------------------|----------------------------|
--9-----9--10-9-----9-------|--9-----9--10-9-----9-------|
-----10----------7-----10---|-----10----------7-----10---|
----------------------------|----------------------------|
----------------------------|----------------------------|


----------------------------|----------------------------|----|----|----|----|
----------------------------|----------------------------|----|----|----|----|
--7-----7--9--7-----7-------|--7-----7--9--7-----7-------|----|----|----|----|
-----9-----------9-----9----|-----9-----------9-----9----|----|----|----|----|
----------------------------|----------------------------|----|----|----|----|
----------------------------|----------------------------|----|----|----|----|


----------------------------|----------------------------|
----------------------------|----------------------------|
-----------------------12---|--12-------12-12-------12---|
-----------------9--10------|-----9--10-------9--10------|
----------------------------|----------------------------|
----------------------------|----------------------------|


----------------------------|-------|----------------|
-----------------8h-10------|-------|----------------|
--12------------------------|--9----|----------------|
----------------------------|-------|----------------|
----------------------------|-------|----------------|
----------------------------|-------|----------------|


-----------------------15---|--15-------15L15-------15---|
-----------------12-13------|-----12-13-------12-13------|
----------------------------|----------------------------|
----------------------------|----------------------------|
----------------------------|----------------------------|
----------------------------|----------------------------|


--15-------20-19-15----17L--|--17------------|----------------------------|
--------------------17------|----------------|----------------------------|
----------------------------|----------------|----------------------------|
----------------------------|----------------|-----------------------14---|
----------------------------|----------------|----------------------------|
----------------------------|----------------|----------------------------|


----------------------------|
----------------------------|
-----------------------12---|
--12------------------------|
--------------------10------|
----------------------------|


----------------------------------------------------|
----------------------------------------------------|
--12----------------------12-------10---------------|
--------------------------------------------14------|
----------------------------------------------------|
----------------------------------------------------|


----------------------------------------------------|
----------------------------------------------------|
----------------------------------------------------|
--12----------------14-12---------------------------|
--------------------------15-------14-------15------|
----------------------------------------------------|


----------------------------|----------------------------|
----------------------------|----------------------------|
--14L---------14-14---------|-----------------------12---|
-----------------------14---|--12------------------------|
----------------------------|--------------------10------|
----------------------------|----------------------------|


----------------------------------------------------|
-----------------------------------10-------12------|
--12----------------------12------------------------|
----------------------------------------------------|
----------------------------------------------------|
----------------------------------------------------|


----------------------------|----------|
--12----13-12---------------|--10------|
-----------------12----9----|----------|
----------------------------|----------|
----------------------------|----------|
----------------------------|----------|


----------------------------------------------------|-------|----------|
----------------------------------------------------|--10---|----------|
--------------------------------------------9-------|-------|----------|
--------------------10----9--------10---------------|-------|----------|
----------------------------------------------------|-------|----------|
----------------------------------------------------|-------|----------|


----------|----------------|----------------|----------------|----------------|
----------|----------------|----------------|----------------|----------------|
----------|----------------|----------------|----------------|----------------|
----------|----------------|----------------|----------------|----------------|
----------|----------------|----------------|----------------|----------------|
----------|----------------|----------------|----------------|----------------|


----------------|----------------|----------------------------|
----------------|----------------|--------12-12L---------12---|
----------------|----------------|----------------------------|
----------------|----------------|--10-10---------------------|
----------------|----------------|----------------------------|
----------------|----------------|----------------------------|


----------------------------|
--12b------12---------------|
--------------------12------|
----------------------------|
----------------------------|
----------------------------|


--15L---------------------------------15------------|-------|
--------------------------------------------15h13---|--15---|
----------------------------------------------------|-------|
----------------------------------------------------|-------|
----------------------------------------------------|-------|
----------------------------------------------------|-------|


----------------------------|----------------------------|-------|----|----|
--------12-12L---------12---|--12b------12---------------|-------|----|----|
----------------------------|--------------------12------|--9----|----|----|
--10-10---------------------|----------------------------|-------|----|----|
----------------------------|----------------------------|-------|----|----|
----------------------------|----------------------------|-------|----|----|


----|----|----|----|----|----|----|----|----|----|----|----|----|----|----|
----|----|----|----|----|----|----|----|----|----|----|----|----|----|----|
----|----|----|----|----|----|----|----|----|----|----|----|----|----|----|
----|----|----|----|----|----|----|----|----|----|----|----|----|----|----|
----|----|----|----|----|----|----|----|----|----|----|----|----|----|----|
----|----|----|----|----|----|----|----|----|----|----|----|----|----|----|


----------------------------------------------------|
----------------------------------------------------|
--------------------------7-----9-----7--------7L---|
--------------------------------------------10------|
----------------------------------------------------|
----------------------------------------------------|


----------------------------------------------------|
----------------------------------------------------|
--7-----9-----7--------7L-7-----9-----7--------7L---|
--------------------10----------------------10------|
----------------------------------------------------|
----------------------------------------------------|


----------------------------------------------------|
--------------------------------------8-------------|
--7-----9-----7--------7L-7-----9-----------9-------|
--------------------10------------------------------|
----------------------------------------------------|
----------------------------------------------------|


----------------------------------------------------|
----------------------------------------------------|
--7-----------------9--7----------------------------|
--------------------------10----------9-----10------|
----------------------------------------------------|
----------------------------------------------------|


----------------------------|----------------------------|
--10L---------10-10---------|----------------------------|
-----------------------9----|--7L----------7--------12---|
----------------------------|----------------------------|
----------------------------|-----------------10---------|
----------------------------|----------------------------|


----------------------------------------------------|
-----------------------------------10-------12------|
--12----------------------12------------------------|
----------------------------------------------------|
----------------------------------------------------|
----------------------------------------------------|


----------------------------|
--12----13-12----------10L--|
-----------------12-9-------|
----------------------------|
----------------------------|
----------------------------|


----------------------------------------------------|
--10------------------------------------------------|
-----------------------------------7--------9-------|
--------------------------10------------------------|
----------------------------------------------------|
----------------------------------------------------|


----------------------------------------------------|
--8-------------------------------------------------|
--------------------------------------------9-------|
--------------------------9--------10---------------|
----------------------------------------------------|
----------------------------------------------------|


----------------------------------------------------|
--10------------------------------------------------|
----------------------------------------------------|
--------------------------7--------9--------10------|
----------------------------------------------------|
----------------------------------------------------|


----------------------------|
----------------------------|
--9-----10-9-----7----------|
-----------------------10---|
----------------------------|
----------------------------|


----------------------------------------------------|
----------------------------------------------------|
--9--------------------------------7--------9-------|
--------------------------10------------------------|
----------------------------------------------------|
----------------------------------------------------|


----------------------------------------------------|
--8-------------------------------------------------|
--------------------------------------------9-------|
--------------------------9--------10---------------|
----------------------------------------------------|
----------------------------------------------------|


----------------------------------------------------|
--10------------------------------------------------|
----------------------------------------------------|
--------------------------7--------9--------10------|
----------------------------------------------------|
----------------------------------------------------|


----------------------------|-------|----||
----------------------------|-------|----||
--9-----10-9-----10-7--7----|-------|----||
----------------------------|--10---|----||
----------------------------|-------|----||
----------------------------|-------|----||


ARPEGGIOS


                                                                  
E |----|--------0-----------1-------|--------3-----------1-------|
B |----|-----1-----1-----1-----1----|-----1-----1-----1-----1----|
G |----|--2-----------2-------------|--2-----------2-------------|
D |----|----------------------------|----------------------------|
A |----|----------------------------|----------------------------|
E |----|----------------------------|----------------------------|

                                                          
--------0-----------1-------|--------3-----------1-------|
-----1-----1-----1-----1----|-----1-----1-----1-----1----|
--2-----------2-------------|--2-----------2-------------|
----------------------------|----------------------------|
----------------------------|----------------------------|
----------------------------|----------------------------|

                                                          
--------0-----------1-------|--------3-----------1-------|
-----1-----1-----1-----1----|-----1-----1-----1-----1----|
--2-----------2-------------|--2-----------2-------------|
----------------------------|----------------------------|
----------------------------|----------------------------|
----------------------------|----------------------------|

                                                            ^
--------0-----------1-------|--------3-----------1-------|--1----|----|----|
-----1-----1-----1-----1----|-----1-----1-----1-----1----|--0----|----|----|
--2-----------2-------------|--2-----------2-------------|--2----|----|----|
----------------------------|----------------------------|-------|----|----|
----------------------------|----------------------------|-------|----|----|
----------------------------|----------------------------|-------|----|----|


----|----|----|----|----|----|----|----|----|----|----|----|----|----|----|----|
----|----|----|----|----|----|----|----|----|----|----|----|----|----|----|----|
----|----|----|----|----|----|----|----|----|----|----|----|----|----|----|----|
----|----|----|----|----|----|----|----|----|----|----|----|----|----|----|----|
----|----|----|----|----|----|----|----|----|----|----|----|----|----|----|----|
----|----|----|----|----|----|----|----|----|----|----|----|----|----|----|----|


----|----|--0--------1----|--3----|--0--------1----|--3----|
----|----|--1--------1----|--1----|--1--------1----|--1----|
----|----|--2--------2----|--2----|--2--------2----|--2----|
----|----|----------------|-------|----------------|-------|
----|----|----------------|-------|----------------|-------|
----|----|----------------|-------|----------------|-------|


--------0-----------1-------|--------3-----------1-------|
-----1-----1-----1-----1----|-----1-----1-----1-----1----|
--2-----------2-------------|--2-----------2-------------|
----------------------------|----------------------------|
----------------------------|----------------------------|
----------------------------|----------------------------|


--------0-----------1-------|--------3-----------1-------|
-----1-----1-----1-----1----|-----1-----1-----1-----1----|
--2-----------2-------------|--2-----------2-------------|
----------------------------|----------------------------|
----------------------------|----------------------------|
----------------------------|----------------------------|


--------0-----------0-------|--------0-----------0-------|
-----1-----1-----1-----1----|-----1-----1-----1-----1----|
--2-----------2-------------|--2-----------2-------------|
----------------------------|----------------------------|
----------------------------|----------------------------|
----------------------------|----------------------------|


--------3-----------3-------|--------3-----------3-------|
-----5-----5-----5-----5----|-----5-----5-----5-----5----|
--4-----------4-------------|--4-----------4-------------|
----------------------------|----------------------------|
----------------------------|----------------------------|
----------------------------|----------------------------|


--------0L-0L-0-------------|----|--------3L-3L-3-------------|----|
-----1-----1L-1-------------|----|-----5-----5L-5-------------|----|
--2L-2L-2L-2L-2-------------|----|--4L-4L-4L-4L-4-------------|----|
----------------------------|----|----------------------------|----|
----------------------------|----|----------------------------|----|
----------------------------|----|----------------------------|----|


--------0L-0L-0-------------|----|--------3L-3L-3-------------|----|
-----1-----1L-1-------------|----|-----5-----5L-5-------------|----|
--2L-2L-2L-2L-2-------------|----|--4L-4L-4L-4L-4-------------|----|
----------------------------|----|----------------------------|----|
----------------------------|----|----------------------------|----|
----------------------------|----|----------------------------|----|


--------12L12L12------------|----|--------15L15L15------------|----|
-----13----13L13------------|----|-----17----17L17------------|----|
--14L14L14L14L14------------|----|--16L16L16L16L16------------|----|
----------------------------|----|----------------------------|----|
----------------------------|----|----------------------------|----|
----------------------------|----|----------------------------|----|


--------12L12L12------------|----|--------15L15L15------------|----|
-----13----13L13------------|----|-----17----17L17------------|----|
--14L14L14L14L14------------|----|--16L16L16L16L16------------|----|
----------------------------|----|----------------------------|----|
----------------------------|----|----------------------------|----|
----------------------------|----|----------------------------|----|


--------0-----------1-------|--------3-----------1-------|
-----1-----1-----1-----1----|-----1-----1-----1-----1----|
--2-----------2-------------|--2-----------2-------------|
----------------------------|----------------------------|
----------------------------|----------------------------|
----------------------------|----------------------------|


--------0-----------1-------|--------3-----------1-------|
-----1-----1-----1-----1----|-----1-----1-----1-----1----|
--2-----------2-------------|--2-----------2-------------|
----------------------------|----------------------------|
----------------------------|----------------------------|
----------------------------|----------------------------|


--------0-----------1-------|--------3-----------1-------|
-----1-----1-----1-----1----|-----1-----1-----1-----1----|
--2-----------2-------------|--2-----------2-------------|
----------------------------|----------------------------|
----------------------------|----------------------------|
----------------------------|----------------------------|


--------0-----------1-------|--------3-----------1-------|----|
-----1-----1-----1-----1----|-----1-----1-----1-----1----|----|
--2-----------2-------------|--2-----------2-------------|----|
----------------------------|----------------------------|----|
----------------------------|----------------------------|----|
----------------------------|----------------------------|----|


--------0L-0L-0-------------|----|--------3L-3L-3-------------|----|----|----|
-----1-----1L-1-------------|----|-----5-----5L-5-------------|----|----|----|
--2L-2L-2L-2L-2-------------|----|--4L-4L-4L-4L-4-------------|----|----|----|
----------------------------|----|----------------------------|----|----|----|
----------------------------|----|----------------------------|----|----|----|
----------------------------|----|----------------------------|----|----|----|


----|----|----|----|----|--0--------1----|--3----|--0--------1----|--3----|
----|----|----|----|----|--1--------1----|--1----|--1--------1----|--1----|
----|----|----|----|----|--2--------2----|--2----|--2--------2----|--2----|
----|----|----|----|----|----------------|-------|----------------|-------|
----|----|----|----|----|----------------|-------|----------------|-------|
----|----|----|----|----|----------------|-------|----------------|-------|


--------0-----------0-------|--------0-----------0-------|
-----1-----1-----1-----1----|-----1-----1-----1-----1----|
--2-----------2-------------|--2-----------2-------------|
----------------------------|----------------------------|
----------------------------|----------------------------|
----------------------------|----------------------------|


--------3-----------3-------|--------3-----------3-------|
-----5-----5-----5-----5----|-----5-----5-----5-----5----|
--4-----------4-------------|--4-----------4-------------|
----------------------------|----------------------------|
----------------------------|----------------------------|
----------------------------|----------------------------|


--------0-----------0-------|--------0-----------0-------|
-----1-----1-----1-----1----|-----1-----1-----1-----1----|
--2-----------2-------------|--2-----------2-------------|
----------------------------|----------------------------|
----------------------------|----------------------------|
----------------------------|----------------------------|


--------3-----------3-------|--------3-----------3-------|----|
-----5-----5-----5-----5----|-----5-----5-----5-----5----|----|
--4-----------4-------------|--4-----------4-------------|----|
----------------------------|----------------------------|----|
----------------------------|----------------------------|----|
----------------------------|----------------------------|----|


--12----x--x--12----x--12----12-x--x--12----x--x----|
--13----x--x--13----x--13----13-x--x--13----x--x----|
--14----x--x--14----x--14----14-x--x--14----x--x----|
----------------------------------------------------|
----------------------------------------------------|
----------------------------------------------------|


--15----x--x--15----x--15----15-x--x--15----x--x----|
--17----x--x--17----x--17----17-x--x--17----x--x----|
--16----x--x--16----x--16----16-x--x--16----x--x----|
----------------------------------------------------|
----------------------------------------------------|
----------------------------------------------------|


--15----x--x--15----x--15----15-x--x--15----x--x----|
--17----x--x--17----x--17----17-x--x--17----x--x----|
--16----x--x--16----x--16----16-x--x--16----x--x----|
----------------------------------------------------|
----------------------------------------------------|
----------------------------------------------------|


--12----x--x--12----x--12----12-x--x--12----x--x----|
--13----x--x--13----x--13----13-x--x--13----x--x----|
--14----x--x--14----x--14----14-x--x--14----x--x----|
----------------------------------------------------|
----------------------------------------------------|
----------------------------------------------------|


--12----x--x--12----x--12----12-x--x--12----x--x----|
--13----x--x--13----x--13----13-x--x--13----x--x----|
--14----x--x--14----x--14----14-x--x--14----x--x----|
----------------------------------------------------|
----------------------------------------------------|
----------------------------------------------------|


--15----x--x--15----x--15----15-x--x--15----x--x----|
--17----x--x--17----x--17----17-x--x--17----x--x----|
--16----x--x--16----x--16----16-x--x--16----x--x----|
----------------------------------------------------|
----------------------------------------------------|
----------------------------------------------------|


--15----x--x--15----x--15----15-x--x--15----x--x----|
--17----x--x--17----x--17----17-x--x--17----x--x----|
--16----x--x--16----x--16----16-x--x--16----x--x----|
----------------------------------------------------|
----------------------------------------------------|
----------------------------------------------------|


--12----x--x--12----x--12----12-x--x--12----x--x----|
--13----x--x--13----x--13----13-x--x--13----x--x----|
--14----x--x--14----x--14----14-x--x--14----x--x----|
----------------------------------------------------|
----------------------------------------------------|
----------------------------------------------------|


--12----x--x--12----x--12----12-x--x--12----x--x----|
--13----x--x--13----x--13----13-x--x--13----x--x----|
--14----x--x--14----x--14----14-x--x--14----x--x----|
----------------------------------------------------|
----------------------------------------------------|
----------------------------------------------------|


--15----x--x--15----x--15----15-x--x--15----x--x----|
--17----x--x--17----x--17----17-x--x--17----x--x----|
--16----x--x--16----x--16----16-x--x--16----x--x----|
----------------------------------------------------|
----------------------------------------------------|
----------------------------------------------------|


--15----x--x--15----x--15----15-x--x--15------------|
--17----x--x--17----x--17----17-x--x--17------------|
--16----x--x--16----x--16----16-x--x--16------------|
----------------------------------------------------|
----------------------------------------------------|
----------------------------------------------------|


--------12L12L------12------|--------15L15L------15------|
-----13----13L------13------|-----17----17L------17------|
--14L14L14L14L------14------|--16L16L16L16L------16------|
----------------------------|----------------------------|
----------------------------|----------------------------|
----------------------------|----------------------------|


--------12L12L------12------|--------15L15L------15------|
-----13----13L------13------|-----17----17L------17------|
--14L14L14L14L------14------|--16L16L16L16L------16------|
----------------------------|----------------------------|
----------------------------|----------------------------|
----------------------------|----------------------------|


--12----x--x--12----x--12----12-x--x--12----x--x----|
--13----x--x--13----x--13----13-x--x--13----x--x----|
--14----x--x--14----x--14----14-x--x--14----x--x----|
----------------------------------------------------|
----------------------------------------------------|
----------------------------------------------------|


--12----x--x--12----x--12----12-x--x--12----x--x----|
--13----x--x--13----x--13----13-x--x--13----x--x----|
--14----x--x--14----x--14----14-x--x--14----x--x----|
----------------------------------------------------|
----------------------------------------------------|
----------------------------------------------------|


--13----x--x--13----x--13----13-x--x--13----x--x----|
--13----x--x--13----x--13----13-x--x--13----x--x----|
--14----x--x--14----x--14----14-x--x--14----x--x----|
----------------------------------------------------|
----------------------------------------------------|
----------------------------------------------------|


--13----x--x--13----x--13----13-x--x--13----x--x----|
--13----x--x--13----x--13----13-x--x--13----x--x----|
--14----x--x--14----x--14----14-x--x--14----x--x----|
----------------------------------------------------|
----------------------------------------------------|
----------------------------------------------------|


--15----x--x--15----x--15----15-x--x--15----x--x----|
--13----x--x--13----x--13----13-x--x--13----x--x----|
--14----x--x--14----x--14----14-x--x--14----x--x----|
----------------------------------------------------|
----------------------------------------------------|
----------------------------------------------------|


--15----x--x--15----x--15----15-x--x--15----x--x----|
--13----x--x--13----x--13----13-x--x--13----x--x----|
--14----x--x--14----x--14----14-x--x--14----x--x----|
----------------------------------------------------|
----------------------------------------------------|
----------------------------------------------------|


--17----x--x--17----x--17----17-x--x--17----x--x----|
--15----x--x--15----x--15----15-x--x--15----x--x----|
--16----x--x--16----x--16----16-x--x--16----x--x----|
----------------------------------------------------|
----------------------------------------------------|
--------------------------