Gametabs
Home
Tabs
Random

Bayou Boogie

Average rating: 5.000

14 ratings

Composer:

Tabber:

Style:

Instrument:

Created: March 29, 2011 at 12:00 AM

                   Bayou Boogie - Donkey Kong Country 2: Diddy's Kong Quest 
                              David Wise                        
                     (Arranged by Nathan Nordstrom)


Tab: Nathan Nordstrom
3/29/2011


                                                                      
Acoustic Guitar 1

*A thumbpick is recommended, but not necessary.
 See score info or included txt for details.*


    4/4 100bpm

      H.           Q       H.           Q     
E||---------------------|--------------------|
B||---------------------|--------------------|
G||*--------------------|--------------------|
D||*--------------------|--------------------|
A||---0------------0----|--0-----------------|
D||---------------------|---------------5----|


                 T.P. Upstroke                                        
  ^         ^    v             ^         ^    v           
  E   E  E  E  S S E  E  E     E   E  E  E  S S E  E  E   
---------3------------------|---------3------------------|
--0h--1-----0--L---1--------|--0h--1-----0--L---1--------|
------------0--L---------2--|------------0--L---------2--|
--2-------------------2-----|--2-------------------2-----|
--0------------x-0----0-----|--0------------x-0----2-----|
----------------------------|----------------------------|


  ^         ^    v             ^         ^    v           
  E   E  E  E  S S E  E  E     E   E  E  E  S S E  E  E   
---------5--0--L---3-----0--|---------5--0--L---3-----0--|
--0h--1-----1--L------3-----|--0h--1-----1--L------3-----|
--0-------------------------|--0-------------------------|
----------------------------|----------------------------|
--3------------x-3----3-----|--3------------x-3----3-----|
----------------------------|----------------------------|


                   R.H.  Tap Body                                      
  ^                   NH            ^               v           
  E   E  E   E  E     E  S S S S    E   E  E   E  S S E  E  E   
--1p--0------------------------0-|--1p--0-------------3--------|
--3------3p--1---------------3---|--3------3p--1--L------1--1--|
----------------2----------------|-----------------------------|
--0----------------<>19--L-------|--0-------------x-0----2-----|
---------------------------------|-----------------------------|
-------------------------x-x-----|-----------------------------|


          ^    v             ^         ^    v           
  Q    E  E  S S E  E  E     E   E  E  E  S S E  E  E   
--------------------------|----------------------------|
----------0--L---1--------|--0h--1-----0--L---1--------|
----------0--L---------2--|------------0--L---------2--|
-------2------------2-----|--2------2------------2-----|
--------------------------|----------------------------|
--3----------x-3----3-----|--3------------x-3----2-----|


  S S S S E  S E  S S S S S S S    S S S S E  S E  S S S S S S S  
--------------------------------|--------------------------------|
--------------------------------|--------------------------------|
--------------------------------|--------------------------------|
--------------------------------|--------------------------------|
--0-0-0-0-0--0-0--0-0-0-0-0-0-0-|--0-0-0-0-0--0-0--0-0-0---------|
--------------------------------|------------------------5-5-5-5-|


  ^                                 ^                               
  S S S S E  S S S S S S S S S S    S S S S E  S S S S S S S S S S  
------5---7--8---7---------------|------5---7--8---7---------------|
--5------------------8---5---6---|--5------------------8---5---6---|
---------------------------------|---------------------------------|
--7------------------------------|--7------------------------------|
--0-0-0-0-0--0-0---0-0-0-0-0-0-0-|--0-0-0-0-0--0-0---0-0-0---------|
---------------------------------|-------------------------5-5-5-5-|


  ^        v          S    v        ^       v      v     v     
  E  S S S S S E.     E  S S S S    S E.  S S E  S E.  S S E   
-----5-3-L---5-----<>12--L-------|----0---L-------------------|
--5------------5---<>12--L---3-1-|--3-------------------------|
--5------------------------------|--2-------------------------|
---------------------------------|----------------------------|
--0------x-0-0-----------x-0-0---|--0-----x-0-0--x-0---x-2-2--|
---------------------------------|----------------------------|


  ^         v          S    v       ^         v   T   T      v     
  E  S  S S S S E.     E  S S E     E  S  S S S S E.  S  S S S E   
-----5p-3-L---5-----<>12--L------|-----5p-3-L---5-8---7p-5-L------|
--5-------------5---<>12--L------|--5-----------------------------|
--5------------------------------|--5-----------------------------|
---------------------------------|--------------------------------|
--3-------x-3-3-----------x-3-3--|--3-------x-3-3----------x-3-3--|
---------------------------------|--------------------------------|


  ^        v          S    v        ^        v          ^      
  E  S S S S S E.     E  S S S S    E  S S S S E  E  E  E  E   
--1--0-------------------------0-|--1--0-------------3--------|
--3----3-L---1---------------3---|--3----3-L---1--1-----1--1--|
---------------2---<>19--L-------|----------------------0-----|
--0------x-0-0-----<>19--x-0-0---|--0------x-0-0--------2-----|
---------------------------------|----------------------------|
---------------------------------|----------------------------|


  H.           Q       S S E.   S  E   Q     E   E       W                 
--------------------|--5-7-8---10-12--12----10--12---||-------------------|
--------------------|--------------------------------||-------------------|
--------------------|-------------------------------*||-------------------|
--------------------|--7-------12-----------12--14--*||-------------------|
--------------------|--------------------------------||--0----------------|
--3------------3----|--------------------------------||-------------------|


  W                  
-------------------||
-------------------||
-------------------||
-------------------||
--L----------------||
-------------------||




Duration Legend
---------------
W - whole
H - half
Q - quarter
E - 8th
S - 16th
T - 32nd
X - 64th
. - note dotted
|-n-|  - n-tuplets


Tablature Legend
----------------
L - tied note
x - dead note
g - grace note
(n) - ghost note
> - accentuded note
NH - natural harmonic
AH - artificial harmonic
TH - tapped harmonic
SH - semi harmonic
PH - pitch harmonic
h - hammer on
p - pull off
b - bend
br - bendRelease
pb - preBend
pbr - preBendRelease
brb - bendReleaseBend
\n/ - tremolo bar dip
\n - tremolo bar dive
-/n - tremolo bar Release up
/n\ - tremolo bar inverted dip
/n - tremolo bar return
-\n - tremolo bar Release down
S - shift slide
s - legato slide
/ -  slide into from below or out of upwards
\ -  slide into from above or out of downwards
~ - vibrato
W - wide vibrato
tr - trill
TP - tremolo picking
T - tapping
S - slap
P - pop
< - fade in
^ - brush up
v - brush down
        
Comments

@soundsandstuff (March 30, 2011 at 12:00 AM)

beautiful! well done nate! x)


@Crilancelo (March 30, 2011 at 2:12 AM)

nice


@ChelseaRare (March 30, 2011 at 3:18 AM)

One of my favorites. Great job.


@jimmyx27 (March 30, 2011 at 4:12 AM)

wow i just beat this game again last week. this game has an amazing soundtrack and this tab is awesome!


@musenji (March 31, 2011 at 1:06 PM)


@musenji (April 01, 2011 at 2:12 PM)

Fantastic. Inventive and definitely groovy. (I cracked the nail on a string slap. :D)

My only beef is with the midi! It sounds better than the real thing can sound, because it holds notes that can't be held when you physically play the piece on a guitar.

I'm adjusting things for my hands as I go along.

Meanwhile, I want to hear you play line 7 at tempo. >:D


@karathrow (October 13, 2011 at 4:57 PM)

Is it possible for me to do the upstrokes without a thumbpick? I can't get the notes to sound out unless I pick them normally.

Also best tab ever or best tab ever?


@dart1234 (June 01, 2012 at 3:21 AM)

¬°Guau..Genial!!


@AnnieCroxton (September 22, 2022 at 6:21 PM)

If I could have made this work for a capo on KFC Near Me with vihuela tuning as that would have alleviated this problem quite a bit.