Gametabs
Home
Tabs
Random

Main Menu

Average rating: 4.500

2 ratings

Composer:

Tabber:

Style:

Instrument:

Created: August 09, 2014 at 12:00 AM

            Tempo Q = 60

     Bm    Em          G     Bm       Bm    Em          G     Bm
 
     Q  Q  Q  E  E     Q  Q  Q  Q     Q  Q  Q  E  E     Q  Q  Q  Q  
E||-----2--0--0-----|-----3--2--7--|-----2--0--0-----|-----0--2--7--|
B||--0-----------3--|--0-----------|--0-----------3--|--0-----------|
G||-----------------|--------------|-----------------|--------------|
D||-----------------|--------------|-----------------|--------------|
A||-----------------|--------------|-----------------|--------------|
E||-----------------|--------------|-----------------|--------------|

  G  Em    Bm D     Bm Em    D        Bm

  Q  H.    Q  H.    Q  Q. E  E. S     Q  H.
--3--0--|--2-----|-----0--0--------|--------|
--------|-----3--|--0--------3--2--|--0-----|
--------|--------|-----------------|--------|
--------|--------|-----------------|-----4--|
--------|--------|-----------------|--------|
--------|--------|-----------------|--------|

  Em    Am          C     Em       Em    Am         C    Em
 
  Q  Q  Q  E  E     Q  Q  Q  Q     Q  Q  Q  E  E    Q  Q  Q  Q  
-----------------|-----------0--|----------------|-----------0--|
-----0-----------|-----1--0-----|-----0----------|--------0-----|
--------2--2--0--|--------------|--------2--2--0-|-----2--------|
--2--------------|--2-----------|--2-------------|--2-----------|
-----------------|--------------|----------------|--------------|
-----------------|--------------|----------------|--------------|

  C  Am    Em G     Em Am    G        Em

  Q  H.    Q  H.    Q  Q. E  E. S     Q  H.
--------|--------|-----------------|--------|
--1-----|--0-----|-----------------|--------|
-----2--|-----0--|-----2--2--0-----|--------|
--------|--------|--2-----------4--|--2-----|
--------|--------|-----------------|-----2--|
--------|--------|-----------------|--------|

  Am   Dm          F     Am       Am    Dm          F     Am
 
  H    Q  E  E     Q  Q  Q  Q     Q  Q  Q  E  E     Q  Q  Q  Q  
----------------|-----1--0--5--|-----0-----------|--------0--5--|
-------3--3--1--|--------------|--------3--3--1--|-----3--------|
--2-------------|--2-----------|--2--------------|--2-----------|
----------------|--------------|-----------------|--------------|
----------------|--------------|-----------------|--------------|
----------------|--------------|-----------------|--------------|

     F  Dm    Am C     Am Dm    C        Am

     Q  H.    Q  H.    Q  Q. E  E. S     Q  H.
||---1-----|--0-----|-----------------|---------||
||.-----3--|-----1--|-----3--3--1--0--|--------.||
||---------|--------|--2--------------|--2------||
||.--------|--------|-----------------|-----2--.||
||---------|--------|-----------------|---------||
||---------|--------|-----------------|---------||



  Am    Dm          F     Am       Am    Dm          F     Am
 
  Q  Q  Q  E  E     Q  Q  Q  Q     Q  Q  Q  E  E     Q  Q  Q  Q  
-----0-----------|-----1--0--5--|-----0-----------|--------0--5--|
--------3--3--1--|--------------|--------3--3--1--|-----3--------|
--2--------------|--2-----------|--2--------------|--2-----------|
-----------------|--------------|-----------------|--------------|
-----------------|--------------|-----------------|--------------|
-----------------|--------------|-----------------|--------------|

     F  Dm    Am C     Am Dm    C        Am

     Q  H.    Q  H.    Q  Q. E  E. S     Q  H.
||---1-----|--0-----|-----------------|---------||
||.-----3--|-----1--|-----3--3--1--0--|--------.||
||---------|--------|--2--------------|--2------||
||.--------|--------|-----------------|-----2--.||
||---------|--------|-----------------|---------||
||---------|--------|-----------------|---------||

Duration Legend
---------------
W - whole
H - half
Q - quarter
E - 8th
S - 16th
T - 32nd
X - 64th
. - note dotted
|-n-|  - n-tuplets


Tablature Legend
----------------
L - tied note
x - dead note
g - grace note
(n) - ghost note
> - accentuded note
NH - natural harmonic
AH - artificial harmonic
TH - tapped harmonic
SH - semi harmonic
PH - pitch harmonic
h - hammer on
p - pull off
b - bend
br - bendRelease
pb - preBend
pbr - preBendRelease
brb - bendReleaseBend
\n/ - tremolo bar dip
\n - tremolo bar dive
-/n - tremolo bar Release up
/n\ - tremolo bar inverted dip
/n - tremolo bar return
-\n - tremolo bar Release down
S - shift slide
s - legato slide
/ -  slide into from below or out of upwards
\ -  slide into from above or out of downwards
~ - vibrato
W - wide vibrato
tr - trill
TP - tremolo picking
T - tapping
S - slap
P - pop
< - fade in
^ - brush up
v - brush down
        
Comments

@Ennea (August 10, 2014 at 8:13 AM)

Great game, even preordered it. Too bad my laptop is way too bad to be able to run it properly 8D


@megamike (December 28, 2016 at 4:56 PM)

Very cool to mix up the chords with the melody, thanks for including the chord progression!