Gametabs
Home
Tabs
Random

Maiden in Black

Average rating: No ratings

Composer:

Tabber:

Style:

Instrument:

Created: September 20, 2017 at 12:00 AM

            Title: "Maiden in Black"
Game: Demon's Souls
Platform: Playstation 3

Composed by: Shunsuke Kida
Tabbed by: Binarynova
Finished: Sep. 19, 2017

Tuning: Standard
Time Signature: 4/4
Tempo: ~60 bpm

Notes: This song is very slow and uses silence very intentionally.
	Let the last note of each chord ring into the next measure,
	but be sure every third measure is muted to give the silence
	its time in the sun. :)
	
	Probably played on harp originally so it would sound best on
	nylon strings, but few classicals have enough frets. :(
	

Play 3x:
     Q    Q    Q    Q      Q    Q    Q    Q      Q    Q    Q    Q
e||-----------------3---|---------------------|---------------------|
B||--4------------------|---------------------|---------------------|
G||------------5--------|---------------------|---------------------|
D||-------5-------------|---------------------|---------------------|
A||---------------------|---------------------|---------------------|
E||---------------------|---------------------|---------------------|

Play 1x:
     Q    Q    Q    Q      Q    Q    Q    Q      Q    Q    Q    Q
e||-----------------3---|---------------------|---------------------|
B||--4------------------|---------------------|---------------------|
G||------------3--------|---------------------|---------------------|
D||-------5-------------|---------------------|---------------------|
A||---------------------|---------------------|---------------------|
E||---------------------|---------------------|---------------------|

Play 2x:
     Q    Q    Q    Q      Q    Q    Q    Q      Q    Q    Q    Q
e||-----------------5---|---------------------|---------------------|
B||--4------------------|---------------------|---------------------|
G||------------5--------|---------------------|---------------------|
D||-------7-------------|---------------------|---------------------|
A||---------------------|---------------------|---------------------|
E||---------------------|---------------------|---------------------|

Play 1x:
     Q    Q    Q    Q      Q    Q    Q    Q      Q    Q    Q    Q
e||-----------------7---|---------------------|---------------------|
B||------------0--------|---------------------|---------------------|
G||--7------------------|---------------------|---------------------|
D||-------5-------------|---------------------|---------------------|
A||---------------------|---------------------|---------------------|
E||---------------------|---------------------|---------------------|

Play 1x:
     Q    Q    Q    Q      Q    Q    Q    Q      Q    Q    Q    Q
e||-----------------6---|---------------------|---------------------|
B||--3------------------|---------------------|---------------------|
G||------------3--------|---------------------|---------------------|
D||-------5-------------|---------------------|---------------------|
A||---------------------|---------------------|---------------------|
E||---------------------|---------------------|---------------------|

Play 1x:
     Q    Q    Q    Q      Q    Q    Q    Q      Q    Q    Q    Q
e||-----------------5---|---------------------|---------------------|
B||--3------------------|---------------------|---------------------|
G||------------2--------|---------------------|---------------------|
D||-------4-------------|---------------------|---------------------|
A||---------------------|---------------------|---------------------|
E||---------------------|---------------------|---------------------|

Play 1x:
     Q    Q    Q    Q      Q    Q    Q    Q      Q    Q    Q    Q
e||-----------------3---|---------------------|---------------------|
B||--5------------------|---------------------|---------------------|
G||------------3--------|---------------------|---------------------|
D||-------5-------------|---------------------|---------------------|
A||---------------------|---------------------|---------------------|
E||---------------------|---------------------|---------------------|

Play 3x:
     Q    Q    Q    Q      Q    Q    Q    Q      Q    Q    Q    Q
e||--15---11------------|---------------------|---------------------|
B||------------13---8---|---------------------|---------------------|
G||---------------------|--8------------------|---------------------|
D||---------------------|---------------------|---------------------|
A||---------------------|---------------------|---------------------|
E||---------------------|---------------------|---------------------|

Play 1x:
     Q    Q    Q    Q      Q    Q    Q    Q      Q    Q    Q    Q
e||--15---11------------|---------------------|---------------------|
B||------------11---8---|---------------------|---------------------|
G||---------------------|--8------------------|---------------------|
D||---------------------|---------------------|---------------------|
A||---------------------|---------------------|---------------------|
E||---------------------|---------------------|---------------------|

Play 1x:
     Q    Q    Q    Q      Q    Q    Q    Q      Q    Q    Q    Q
e||--17-----------------|---------------------|---------------------|
B||-------15---10---7---|---------------------|---------------------|
G||---------------------|--7------------------|---------------------|
D||---------------------|---------------------|---------------------|
A||---------------------|---------------------|---------------------|
E||---------------------|---------------------|---------------------|

Play 1x:
     Q    Q    Q    Q      Q    Q    Q    Q      Q    Q    Q    Q
e||--17-----------------|---------------------|---------------------|
B||-------16------------|---------------------|---------------------|
G||------------17---14--|---------------------|---------------------|
D||---------------------|--15-----------------|---------------------|
A||---------------------|---------------------|---------------------|
E||---------------------|---------------------|---------------------|

Play 1x:
     Q    Q    Q    Q      Q    Q    Q    Q      Q    Q    Q    Q
e||--19-----------------|---------------------|---------------------|
B||-------15---12-------|---------------------|---------------------|
G||-----------------12--|---------------------|---------------------|
D||---------------------|--14-----------------|---------------------|
A||---------------------|---------------------|---------------------|
E||---------------------|---------------------|---------------------|

Play 1x:
     Q    Q    Q    Q      Q    Q    Q    Q      Q    Q    Q    Q
e||--15-----------------|---------------------|---------------------|
B||-------15------------|---------------------|---------------------|
G||------------15---12--|---------------------|---------------------|
D||---------------------|--12-----------------|---------------------|
A||---------------------|---------------------|---------------------|
E||---------------------|---------------------|---------------------|

Play 1x:
     Q    Q    Q    Q      Q    Q    Q    Q      Q    Q    Q    Q
e||--14-----------------|---------------------|---------------------|
B||-------15------------|---------------------|---------------------|
G||------------14---11--|---------------------|---------------------|
D||---------------------|--12-----------------|---------------------|
A||---------------------|---------------------|---------------------|
E||---------------------|---------------------|---------------------|

Play 1x:
     Q    Q    Q    Q      Q    Q    Q    Q      Q    Q    Q    Q
e||--12-----------------|---------------------|---------------------|
B||-------11------------|---------------------|---------------------|
G||------------12-------|--9------------------|---------------------|
D||-----------------11--|---------------------|---------------------|
A||---------------------|---------------------|---------------------|
E||---------------------|---------------------|---------------------|

Repeat from beginning.
        
Comments

No comments yet