Gametabs
Home
Tabs
Random

Thrash Machine

Average rating: 4.250

4 ratings

Composer:

Tabber:

Style:

Instrument:

Created: May 26, 2021 at 12:00 AM

            Title: Thrash Machine
Album: Deltarune
Music: Toby Fox
Tabber: H.F.

Tempo = 70

Legend
L - tied note
^ - brush down

                                                             
E |-----------------------2----||-5--------------------2----|
B |--------------------3-------||-------------------3-------|
G |-----------------2----------||o---------------2----------|
D |--0-------------------------||o0-----------------4-------|
A |----------------------------||----------0----------------|
D |----------------------------||---------------------------|

                                                                           
--5-----11-------11---------|--------------2-------------|--0-------------|
-----------10-------10------|--8--------0----------------|----------------|
--------------11-------11---|--------------------0-------|----------------|
--------9-------------------|----------------------------|-----------0----|
--6-------------------------|--7-------------------------|--0--2--4-------|
----------------------------|----------------------------|----------------|

                                                                           
--3-----------2--------0L---|--0--7--5--4----|--5-------------------------|
--------0--------0----------|----------------|----------------------------|
-----------0--------0-------|-----0----------|----------------------------|
--2-----------1--------0L---|--0-------------|--0-------------------------|
----------------------------|--------2--4----|-----------0--------2-------|
----------------------------|----------------|----------------------------|

                                                                           
-----------------------2---||----------------|--2-------------------------|
--------------------3------||--------0--2----|--3-------------------------|
-----------------2--------o||-----2----------|----------------------------|
--------------------------o||----------------|--0-------------------------|
--0--------2--4------------||--------2--4----|-----------0--------4-------|
---------------------------||----------------|----------------------------|

                                                                           
--------2--5----|--7-----------------3-------|-----------3L-3-----0-------|
-----3----------|--7-------------------------|--5-----7-------------------|
----------------|--7-------------------------|--6-------------------------|
--0-------------|-----------0----------------|----------------------------|
----------------|--------------------2-------|-----------4L-4-----0-------|
----------------|--5-------------------------|--5-------------------------|

                                                          
--5-----2--5L-5-----10------|-----------------5--7--5----|
--2--------------------10L--|--10-------7----------------|
----------------------------|----------------------------|
----------------------------|--10------------------------|
-----------0L-0-------------|-----------0----------------|
--0-------------------------|--0-------------------------|

                                                          
--3--------------3--3--5----|--2-----0-----------0-------|
--0-------------------------|-----------3L-3--3----------|
--0-------------------------|--3-------------------------|
----------------------------|-----------4--------2-------|
-----------2----------------|--4-------------------------|
--2-------------------------|----------------------------|

  ^                      ^
--2-------------------|--7--------------------5----|
--3--------------7----|-----------------4--7-------|
--2-----------7-------|--8-------------------------|
----------------------|--7-------------------------|
--2-------------------|----------------------------|
----------------------|--9-------------------------|


--7-----------------3-------|--0-----2--3L-3-----0-------|
--0-------------------------|--2-------------------------|
--0-------------------------|--0-------------------------|
----------------------------|----------------------------|
-----------2----------------|--0-----------------4-------|
--2-------------------------|-----------2----------------|


-----------0L-0-----2-------|----------|-----------------------2L---|
--2-----3--------------3L3L--|--3-------|--0--------0L-0-----3-------
--0-------------------------|----------|--------0-------------------|
-----------2----------------|--4-------|----------------------------|
--1-----------------4-------|--2--0----|----------------------------|
----------------------------|----------|--5-------------------------|


--2-----0-------------------|----------------------------|----------||
|-----------3L-3-----2--3L---|--3-------------------------|----------|
----------------------------|-----------2----------------|----------||
----------------------------|--0-------------------------|--0-------||
--0-------------------------|--------------------0-------|----------||
----------------------------|----------------------------|----------||


        
Comments

No comments yet