Gametabs
Home
Tabs
Random

The Legend

Average rating: 5.000

4 ratings

Composer:

Tabber:

Style:

Instrument:

Created: February 20, 2021 at 12:00 AM

            The Legend                                                 
Deltarune
Toby Fox
JordanVS

Tempo: 110 ~ 4/4

Download link: http://www.mediafire.com/file/gadcormi057j8e5/The_Legend_-_Deltarune.zip...


     Q    E  E  E  E  Q       E  E  E  E  H           Q    E  E  E  E  Q       E  E  E  E  H         
E||------------------------|--0-----0-----3--------|-------5-----5--7--8----|--7--------------------|
B||-------------------5----|-----3-----6--0--------|----------8-------------|--0-----------8--------|
G||-------5--4--5--7--5----|--5--------------------|--5---------------------|--------0--------------|
D||--7---------------------|--5--------------------|--7---------------------|--------------9--------|
A||------------------------|-----------------------|--8---------------------|--7--------------------|
E||------------------------|-----------------------|------------------------|--------7--------------|


  Q    Q    Q    E  E     Q    Q    Q    Q       H        Q    Q       Q    E  E  H                     
-----------------5-----|--3---------0---------|----------------0----|-------------0--------|-----------|
--6----5----6----------|--5----6----0----1----|--3--------1---------|--3----L--------------|-----------|
-----------------0-----|-----------------0----|----------------2----|--2----1-----1--------|-----------|
--7-----------------3--|----------------------|--3--------2---------|----------4--2--------|-----------|
--5--------------------|--3--------------3----|--1------------------|--2-------------------|-----------|
-----------------------|------------3---------|---------------------|----------------------|-----------|


  Q    E  E  Q    Q       Q    Q    H           Q    E  E  Q    Q       Q    Q    H         
-------------8----7----|--3---------0--------|--0----1--3--1----0----|------------0--------|
----------5------------|-------3-------------|-----------------------|--3----1-------------|
-------5---------------|------------0--------|-------------2---------|------------0--------|
--7----------7---------|-------0-------------|------------------2----|-------2-------------|
-------7---------------|---------------------|-------3---------------|---------------------|
--5--------------------|--3------------------|--1--------------------|--0------------------|


  Q    E  E  Q    Q       Q    Q    H           Q    E  E  Q    Q       Q    E  S  S Q    Q     
-------------8----7----|--3------------------|----------3------------|---------------0---------|
----------5------------|-------3----5--------|--5----6-----6----5----|--3----1-------0---------|
-------5----------7----|--4------------------|--3--------------------|--4-------1h-2-----------|
--7-------7--5---------|------------5--------|-----------------------|---------------2----6----|
--5----7---------------|--3------------------|-----------------------|-------2-----------------|
-----------------------|---------------------|-----------------------|-------------------------|


    E  E  E  E  E  E  E  E     E  E  E  E  E  E  E  E     E  E  E  E  E  E  E  E   
|---------------8-----7-----|--3-----------0-----------|--0-----1--3--1-----0-----|
|------------5--------------|--------3-----------0-----|--------------------------|
|*--------5--------5-----5--|-----------0-----0-----0--|--------2--------2-----2--|
|*--7-----------------------|-----0--------------------|--------------------------|
|------7--------------------|--------------------------|-----3--------------------|
|---5-----------5-----------|--3-----------3-----------|--1-----------1-----------|


  E  E  E  E  E  E  E  E     E  E  E  E  E  E  E  E     E  E  E  E  E  E  E  E   
--------------0-----------|--------------8-----7-----|--3-----------0-----0-----|
--3-----1-----------0-----|-----------5--------------|--------3--------------0--|
-----------0-----0-----0--|--------5--------7-----7--|-----0-----0-----0--------|
--------------2-----------|--7-----------------------|--------------2-----------|
-----2--------------------|-----5--------5-----------|--3-----------------------|
--0-----------------------|--------------------------|--------------------------|


   Q     E   E   Q     Q        Q    E  S   S  Q    Q         E  E  E  E   E  E  Q     
--12----13--15--13----12----|--10----8--------12----------||--------------------------|
--11------------------------|--12----0--9s-10-12----9-----||--------1--0h--1--3--5----|
----------------------------|------------------9---------*||--------2--0h--2--4--5----|
----------------------------|----------------------------*||--------------------------|
----------------------------|-----------------------------||--0--0--L------------0----|
----------------------------|-----------------------------||--------------------------|


  E  S S  E.  S Q    E  E      Q.      E  Q.     E     Q    Q    Q    Q       E  E  E  E  E  E  E  E   
--------------1-3----5--7--|---8------10--8------7--|--3-------------------|--1--0--1--5--3--1--0--1--|
--5----3h-5---3-5----------|--10-------8---------8--|--0-------------------|--------------------------|
--5----4h-5-----4----------|--10--------------------|--0---------0---------|--2--0--2--5--4--2--0--2--|
---------------------------|------------------------|-----------------0----|--------------------------|
---------------------------|---8--------------------|-------2--------------|--3-----------------------|
--3--3----L----------3-----|------------------------|--0-------------------|--------------------------|


                           PM     PM PM   PM      PM       PM          PM   PM PM PM PM  
  Q    E  E  Q    E  E     Q.     E  Q    Q       H        H           Q    E  E  E  E   
--3----0-----0-------0--|--1------0------------|-----------0--------|-------7--8--7--5--|
--0-------3-------1-----|------------3----1----|--0-----------------|-------5-----5-----|
-------0-----0-------0--|--2------2--0---------|-----------1--------|-------------------|
----------3-------2-----|-----------------3----|--2-----------------|--7----------------|
--2---------------------|--1-------------------|--2-----------------|-------------------|
-------------3----------|----------------------|--------------------|-------------------|


  PM   PM   PM      PM   PM PM PM PM     PM   PM   PM      PM    PM PM  PM  PM     PM    PM   PM    
  Q    Q    Q       Q    E  E  E  E      Q    Q    Q       Q     E  E   E   E      Q     Q    Q     
-----------------|-------7--8--7--5--|--10--------------|-----------8----------|--------------8----|
--5---------5----|-------5-----5-----|------------------|-------12-----12--10--|--12---------------|
-------5---------|-------------------|--------9----9----|--------9------9------|--------------9----|
--7--------------|--5----------------|------------------|----------------------|--------10---------|
-----------------|-------------------|--10--------------|--8-------------------|---8---------------|
-----------------|-------------------|------------------|----------------------|-------------------|


  PM   PM PM PM PM    PM PM PM PM PM PM PM PM    PM   PM PM PM PM    PM   PM   PM      PM   PM PM PM PM  
  Q    E  E  E  E     E  T  T  S  E  E  E  E     Q    E  E  E  E     Q    Q    Q       Q    E  E  E  E   
--3----3-----------|--0-----------------------|-------0--1--0-----|------------1----|--0----------------|
----------6--5--6--|--------------------------|----------------3--|-----------------|----------3--1--3--|
-------------------|--0-----------------------|-------------------|--3--------------|-------------------|
-------5-----5-----|-----3h-5p-3--2--3--2--0--|-------0-----3-----|-------3----3----|-------------2-----|
--3----------------|--------------------------|--1----------------|--1----5---------|--0----3-----------|
-------------------|--------------------------|-------------------|-----------------|-------------------|


  PM   PM   PM      PM   PM   PM      PM   PM   PM      PM     PM        PM                              
  Q    Q    Q       Q    Q    Q       Q    Q    Q       Q.     Q.        Q.     Q.        H.             
--0--------------|-----------------|-----------------|--0-------------|--L-------------|---------------||
------------1----|--4--------------|------------4----|---------0------|--0-------------|---------------||
-----------------|-------4----2----|-----------------|----------------|----------------|---------------||
------------2----|-------4----4----|-------4----4----|--2-------------|---------2------|--L------------||
--0----3---------|--2--------------|--6--------------|----------------|----------------|---------------||
-----------------|-----------------|--7--------------|----------------|----------------|---------------||




Duration Legend
---------------
W - whole
H - half
Q - quarter
E - 8th
S - 16th
T - 32nd
X - 64th
. - note dotted
|-n-|  - n-tuplets


Tablature Legend
----------------
L - tied note
x - dead note
g - grace note
(n) - ghost note
> - accentuded note
NH - natural harmonic
AH - artificial harmonic
TH - tapped harmonic
SH - semi harmonic
PH - pitch harmonic
h - hammer on
p - pull off
S - shift slide
s - legato slide
~ - vibrato
W - wide vibrato
tr - trill
TP - tremolo picking
T - tapping
S - slap
P - pop
< - fade in
^ - brush up
v - brush down

        
Comments

@Gabedawg (April 03, 2021 at 8:07 PM)

You're one of the only old school tabbers from this site who continues to produce arrangements.

That is so cool.

It inspires me tremendously. I am filled with determination >:)


@WhyCan'tILogIn (May 09, 2021 at 4:24 AM)

Nice