Gametabs
Home
Tabs
Random

Susie

Average rating: 3.500

4 ratings

Composer:

Tabber:

Style:

Instrument:

Created: November 13, 2018 at 12:00 AM

            Game    : Deltarune
Song    : Susie
Composer: Toby Fox

Transcribed by Jacksohn01
13. November 2018

Standard Tuning EADGBE
BPM: 70 4/4


Guitar:

--|1 - 2 - 3 - 4 - |1 - 2 - 3 - 4 - |1 - 2 - 3 - 4 - |1 - 2 - 3 - 4 - |
E||------2---------|----------------|------6---------|----------------|
B||--0-2-----------|----------------|--0-2-----------|----------------|
G||1---------------|----------------|1---------------|----------------|
D||----------------|----------------|----------------|----------------|
A||----------------|----------------|----------------|----------------|
E||----------------|----------------|----------------|----------------|


--|1 - 2 - 3 - 4 - |1 - 2 - 3 - 4 - |1 - 2 - 3 - 4 - |1 - 2 - 3 - 4 - |
E||--9-7-6---------|----------------|2-2-4-----------|----------------|
B||7---------------|----------------|------4---------|----------------|
G||----------------|----------------|----------------|----------------|
D||----------------|----------------|----------------|----------------|
A||----------------|----------------|----------------|----------------|
E||----------------|----------------|----------------|----------------|


Piano: play G#1 on every 2.3 Beat, or rather on the last of each four notes

In case you don't know what G#1 looks like, it's the middle key of the three black ones
        
Comments

@TheTabsInTheAir (November 29, 2018 at 5:08 AM)

EZ