Gametabs
Home
Tabs
Random

Scarlet Forest

Average rating: 5.000

9 ratings

Composer:

Tabber:

Style:

Instrument:

Created: May 07, 2021 at 12:00 AM

            Scarlet Forest                                            
Deltarune
Toby Fox
JordanVS

*Capo on the 2nd fret
Tempo: 120 ~ 4/4


     E  E  E  E  E  E  E  E     E  E  E  E  E  E  E  E     E  E  E  E  E  E  E  E   
E||-----0-----0-----0-----0--|--------------------------|--------------------------|
B||-----0-----0-----0-----0--|-----0-----0-----0-----0--|--------------------------|
G||-----0-----0-----0-----0--|--------------------------|-----2-----2-----2-----2--|
D||--------------------------|-----4-----4-----4-----0--|-----2-----2-----2-----2--|
A||--7-----------7-----------|-----5-----5-----5--------|-----3-----3-----3-----3--|
E||--------------------7-----|--7-----------7-----2-----|--5-----------5-----0-----|


  E  E  E  E  E  E  E  E     E  E  E  E  E  E  E  E     E  E  E  E  E  E  E  E   
--------------------------|-----0-----0-----0-----0--|--------------------------|
-----3-----3-----4-----4--|-----0-----0-----0-----0--|-----3-----3-----3-----3--|
-----2-----2-----4-----4--|-----0-----0-----0-----0--|-----4-----4-----4-----4--|
-----4-----4-----4-----4--|--2-----------2-----------|-----5-----5-----5-----5--|
--5-----------6-----------|--------------------2-----|--5-----------5-----0-----|
--------------------7-----|--------------------------|--------------------------|


  E  E  E  E  E  E  E  E     E  E  E  E  E  E  E  E     E  E  E  E  E  E  E  E   
--------------------------|--------------------------|--2--------0--2--------0--|
-----2-----2-----2-----2--|-----0-----0-----4-----4--|-----0-----0-----0-----0--|
-----4-----4-----4-----4--|-----0-----0-----4-----4--|-----0-----0-----0-----0--|
-----5-----5-----5-----5--|-----2-----2-----4-----4--|--2-----------2-----------|
--4-----------4-----0-----|--3-----------6-----------|--------------------2-----|
--------------------------|--------3-----------7-----|--------------------------|


  E  E  E  E  E  E  E  S  S    E  E  E  E  E  E  E  E     E  E  E  E  E  E  E  S  S  
----------------------------|--------------------------|----------------------------|
--0-----------0--------0h-1-|--3--------1--3--------1--|----------------------------|
-----------2----------------|-----2-----2-----2-----2--|--2--------0--2--------4p-2-|
-----0-----0-----0-----0----|-----2-----2-----2-----2--|-----4-----------4----------|
--2-----------2-------------|--0-----------0-----------|--5-----------6-----2-------|
--------------------2-------|--------------------0-----|----------------------------|


  E  E  E  E  E  E  E  E     E  E  E  E  E  E  E  E     E  E  E  E  E  E  E  S  S  
--------------2-----3-----|--5-----0-----2-----3-----|--7--------------------3h-5-|
--------0--------0-----0--|-----3-----3-----3-----3--|-----0-----0-----0-----0----|
--0--------0-----0-----0--|-----4-----4-----4-----4--|-----0-----0-----0-----0----|
-----2--------2-----------|--0-----------0-----------|----------------------------|
--------------------2-----|--------------------0-----|--4-----------4-----0-------|
--------------------------|--------------------------|----------------------------|


  E  E  E  S  S E  E  E  E     E  E  E  E  E  E  E  E     E  E  E  E  E  E  E  S  S  
--7--------5p-3-7-----------|--2--------0--2--------0--|----------------------------|
-----0-----0-------0-----0--|-----0-----0-----0-----0--|--0-----------0--------0h-1-|
-----0-----0----------------|-----0-----0-----0-----0--|-----------2----------------|
----------------------------|--2-----------2-----------|-----0-----0-----0-----0----|
--3-------------6-----------|--------------------2-----|--2-----------2-------------|
--------3-------------7-----|--------------------------|--------------------2-------|


  E  E  E  E  E  E  E  E      T  T  S E  E  E   E   E  E  S  S     E   E  E  E  E  E  E  E   
-----------0--------------|--(0)---------L-----(2)-------------|--(3)-----L-----2-----3-----|
--3-----------3--1--0--1--|-----------------0------------------|----------0--------0-----0--|
-----2-----2-----2-----2--|---2h-4p-2-0--2------2---------4p-2-|---0---------0-----0-----0--|
-----2-----2-----2-----2--|---0-------------4-------4----------|-------2--------2-----------|
--0-----------0-----------|---------------------6------2-------|----------------------2-----|
--------------------0-----|------------------------------------|----------------------------|


  E  E  E  E  E  E  E  E     E  E  E  E  E  E  E  S  S    E  E  E  S  S E  E  E  E   
--5-----0-----2-----3-----|--7-----------0--------0h-2-|--3--------2p-0-------------|
-----3-----3-----3-----3--|-----0-----0-----0-----0----|-----0-----0----4-----------|
-----4-----4-----4-----4--|-----0-----0-----0-----0----|-----0-----0-------4-----4--|
--0-----------0-----------|----------------------------|-------------------4-----4--|
--------------------0-----|--4-----------4-----0-------|--3-------------6-----------|
--------------------------|----------------------------|--------3-------------7-----|


    E  E  E  E  E  E  E  E     T  T  S E  E  E  E  E  E  S  S    E  E  E  E  E  E  E  E   
|---2--------0--2-----L--3--|--2h-3p-2-L-----0--2--------2h-3-|--5--------3--2-----------|
|------0-----0--------0-----|---------------------------------|-----------------5--3--5--|
|*-----0-----0-----0--------|----------4-----4-----4-----4----|-----2-----2-----2-----2--|
|*--2-----------2-----------|----------4-----4-----4-----4----|-----2-----2-----2-----2--|
|---------------------2-----|--2----------------2-------------|--0-----------0-----------|
|---------------------------|-------------------------2-------|--------------------0-----|


  T  T  S E  E  E  E  E  E  E     E  E  E  E  E  E  E  E     T  T  S E  E  E  E  E  E  E   
-------------------------2--5--|--0-----3-----5-----7-----|--2h-3p-2-L-----0--------------|
--3h-5p-3----0--------4--------|-----0-----0-----0-----0--|----------0--------3--1--0--1--|
----------5-----2--4--------4--|-----0-----0-----0-----0--|----------0-----0-----0-----0--|
--0-------4-----4-----4--------|--2-----------------------|--0----------------0-----------|
-------------------6-----2-----|--------------7-----------|-------------------------0-----|
-------------------------------|--------------------7-----|-------------------------------|


  E  E  E  E  E  E  E  S  S    E  E  E  S  S E  E  E  E        E  E  E  E  E  E  E  E   
--0--------------------0h-2-|--3--------2p-0--------------||---------------0-----------|
-----0-----0-----0-----0----|-----0-----0----4------------||---------0--1-----1--0--1--|
-----0-----0-----0-----0----|-----0-----0-------4-----4--*||*-----2-----2-----2-----2--|
----------------------------|-------------------4-----4--*||*-----2-----2-----2-----2--|
--4-----------4-----0-------|--3-------------6------------||---0-----------0-----------|
----------------------------|--------3-------------7------||---------------------0-----|


                 |--3--|                         |--3--|        
  E  E  E  E  E  S  S  S E  E     E  E  E  E  E  S  S  S E  E   
--3-----------3--2h-3p-2----2--|--3-----------7--5h-7p-5----5--|
-----1--0--1-------------5-----|-----0-----0-----0-------8--0--|
-----2-----2-----2----------2--|-----0-----0-----0----------0--|
-----2-----2-----2----------2--|--2----------------------------|
--0-----------0----------------|--------------7----------------|
-------------------------0-----|-------------------------7-----|


                               NH                                                                
         |---3--|                                                                 |--3--|        
  E   E  S   S  S  E  E  E     E  E     E  E  E  E  E  E  E  E     E  E  E  E  E  S  S  S E  E   
--7--10--9h-10p-9-----7-----<>12-----|--------------0-----------|--3-----------3--2h-3p-2----2--|
------0-----------10-----0--------0--|--------0--1-----1--0--1--|-----1--0--1-------------5-----|
------0------------0-----0--------0--|-----2-----2-----2-----2--|-----2-----2-----2----------2--|
-------------------------------------|-----2-----2-----2-----2--|-----2-----2-----2----------2--|
--7-------------------7--------------|--0-----------0-----------|--0-----------0----------------|
-------------------------------7-----|--------------------0-----|-------------------------0-----|


                             1.                           2.
                                                                        >     >      
  E  E  E  S  S E  E  E  E     E  E  E  E  E  E  E  E       E  E  E  E  E  E  E  E   
--3--------3h-5-7--7--5--5--|--3-----2-----0-----2------||--3-----2-----0-----2-----|
-----0-----0-------0-----0--|-----0-----0-----0-----0---||-----0-----0-----0-----0--|
-----0-----0-------0-----0--|-----0-----0-----0-----0--*||-----0-----0-----0-----0--|
--2-------------------------|--2-----------2-----------*||--2-----------2-----------|
----------------7-----2-----|--------------------2------||--------------------2-----|
----------------------------|---------------------------||--------------------------|


                 |--3--|                         |--3--|                                   
  E  E  E  E  E  S  S  S E  E     E  E  E  E  E  S  S  S E  E     E  E  E  E  E  E  E  E   
--3-----------3--2h-3p-2-0--2--|--3-----------3--2h-3p-2-0--2--|--3--------2--------------|
--5--------0-----0----------0--|--4--------1-------------------|--------------3-----------|
-----4-----0-----0----------0--|-----5-----0-----0----------0--|-----4-----4-----4-----5--|
-----5-------------------------|-----5-------------------------|-----4-----4-----4-----4--|
--3-----------3----------------|--3-----------3----------------|--2-----------2-----2-----|
-------------------------3-----|-------------------------3-----|--------------------------|


  E  E  E  E  E  E  E  E     E  E  E  E  E  E  E  E     E  E  E  E  E  E  E  E   
--------------------------|--------------------------|--------------------------|
--0-----------------0--1--|--3--3--3--3--3--------0--|--------------------------|
-----4-----2--0--2--------|-----2-----2--------0-----|--2--2--2--2--2-----4--2--|
-----4-----4-----2-----2--|-----2-----2--------------|-----4-----4--------------|
--------------------------|--0-----------0-----------|--2-----------2-----------|
--0-----------0-----0-----|--------------------0-----|--------------------2-----|

                                                  
  E  E  E  E  Q    Q       E  E  E  E   E  E  E  E     W                  
------------------------|--7-----8------------------|-------------------||
------------------------|--7-----7-----10-----8-----|--8----------------||
--0----------------7----|-----7-----7------8-----8--|--7----------------||
-----2-----2------------|---------------------------|-------------------||
--3-----------3---------|---------------------------|-------------------||
------------------------|---------------------------|-------------------||




Duration Legend
---------------
W - whole
H - half
Q - quarter
E - 8th
S - 16th
T - 32nd
X - 64th
. - note dotted
|-n-|  - n-tuplets


Tablature Legend
----------------
L - tied note
x - dead note
g - grace note
(n) - ghost note
> - accentuded note
NH - natural harmonic
AH - artificial harmonic
TH - tapped harmonic
SH - semi harmonic
PH - pitch harmonic
h - hammer on
p - pull off
< - fade in
^ - brush up
v - brush down

        
Comments

@Montmorency1 (May 13, 2021 at 7:42 PM)

Sounds great!


@coobs (July 02, 2021 at 11:04 PM)

this is really fun to play, thanks