Gametabs
Home
Tabs
Random

Rude Buster

Average rating: 4.500

2 ratings

Composer:

Tabber:

Style:

Instrument:

Created: February 17, 2022 at 12:00 AM

            Guitar 1 (Loop the first two bars four times)

      F#m7             A9(13)       F#m7    Bm7               A9(13)       
e|-----2------2----------0------0----2--------------------------0-----0-----2
B|-----2------2----------0------0----2-------3-------3----------0-----0-----2
G|-----2------2----------2------2----2-------2-------2----------2-----2-----2
D|-----4------4----------4------4------------4-------4-----------------------
A|-----4------4----------4------4--------2-------2-------2---4-----4---------
E|--2------2-----2----3------3-----------------------------------------------
                       
      F#m7             A9(13)       F#m7 B7sus2  E    F#m    E   F#m 
e|-----2------2----------0------0----2--------------------------------|
B|-----2------2----------0------0----2----2---------------------------|
G|-----2------2----------2------2----2----2-----1-----2------1----2---|
D|-----4------4----------4------4---------4-----2-----4------2----4---|
A|-----4------4----------4------4---------2-----2-----4------2----4---|
E|--2------2-----2----3------3----------------------------------------|

   Gmaj7         F#m11       Gmaj7        C#(b9)    
e|-----2------------0------------2------------4-----|
B|-----0------------0------------0------------2-----| 
B|-----0------------2---2--------0------------1--1--|
D|-----0---0---4----4---4--------0---0--------0--0--|
A|-----0---0---4----4---4--------0---0---4----------|
E|-3---3-------2-----------3-----3------------------|

 (Loop this bar and the next one two times)
     Gmaj7         F#m11       Gmaj7        C#(b9)    Gmaj7 
e|-----2------------0------------2------------4---------2---|
B|-----0------------0------------0------------2---------0---| 
B|-----0------------2---2--------0------------1--1------0---|
D|-----0---0---4----4---4--------0---0--------0--0------0---|
A|-----0---0---4----4---4--------0---0---4--------------0---|
E|-3---3-------2-----------3-----3------------------3---3---|

    F#m11            Esus4   Ebm
e|---------0-------------------------------------------|
B|---------0-------------------------------------------|
G|-0-------2---2------2--------------------------------|
D|-0--4----4---4--0---0--0------6----------------------|
A|----4----4---4--0---0--0---4--4--4-------------------|
E|----2------------------------------------------------|

(Loop this bar and the next one two times)
      F#m7             A9(13)       F#m7    Bm7               A9(13)       
e|-----2------2----------0------0----2--------------------------0-----0-----2
B|-----2------2----------0------0----2-------3-------3----------0-----0-----2
G|-----2------2----------2------2----2-------2-------2----------2-----2-----2
D|-----4------4----------4------4------------4-------4-----------------------
A|-----4------4----------4------4--------2-------2-------2---4-----4---------
E|--2------2-----2----3------3-----------------------------------------------
                       
      F#m7             A9(13)       F#m7 B7sus2  E    F#m    E   F#m 
e|-----2------2----------0------0----2--------------------------------|
B|-----2------2----------0------0----2----2---------------------------|
G|-----2------2----------2------2----2----2-----1-----2------1----2---|
D|-----4------4----------4------4---------4-----2-----4------2----4---|
A|-----4------4----------4------4---------2-----2-----4------2----4---|
E|--2------2-----2----3------3----------------------------------------|

 Guitar 2 (Play on the third loop)
e|-----2-5-7-9---7-7--12--9--2-4--5-4---------|
B|-0-2---------------------------------5-2----|
G|--------------------------------------------|
D|--------------------------------------------|
A|--------------------------------------------|
E|--------------------------------------------|

e|-----2-5-7-9---7-7--12-14-16-12-14----|
B|-0-2----------------------------------|
G|--------------------------------------|
D|--------------------------------------|
A|--------------------------------------|
E|--------------------------------------|

e|-------------------------------4-------------------------------------------
B|-7-5-3-2-3-2------7-5-3-2-3-2-----7-5-3-2-3-2------------------------------
G|---------------------------------------------------1-2--1-2-1--------------
D|--------------4---------------------------------4--------------4-3-4-------
A|---------------------------------------------------------------------------
E|---------------------------------------------------------------------------

e|----------------------------------------------------------------------|
B|----------------------------------------------------------------------|
G|-------------------------------------------------------11-------------|
D|-----------------4h6/7--4h6/9--7h9/11-9-7-9-7-14-12-11----11-9-7-9-11-|
A|----------------------------------------------------------------------|
E|----------------------------------------------------------------------|


e|--------------------7-----=3---------2-----4---------5-4---------------|
B|-----------5-2---2-----5-2---5-2---2---2-----5-----------5-2-4-------5-|
G|---------------4---6-------------4-------2-----6---6-----------4-2-4---|
D|4-4-4/16-----------------------------------------7---------------------|
A|-----------------------------------------------------------------------|
E|-----------------------------------------------------------------------|

e|----------------------------------2------|
B|-7---2---2---5-7---2---2---5-------------|
G|-------4-------------4---4---------------|
D|---4-------4-----4------------4-4----4-4-|
A|-----------------------------------------|
E|-----------------------------------------|


************************************

 h   Hammer-on

 /   Slide up


************************************
        
Comments

@Kirill Chernov (February 26, 2022 at 6:53 PM)

It would be nice if there are some time notes.