Gametabs
Home
Tabs
Random

Men's Room Stall

Average rating: No ratings

Composer:

Tabber:

Style:

Instrument:

Created: November 03, 2007 at 12:00 AM

                                           Game: Deja Vu
                            Stage: Toilet - Bass
                    Tabbed by: Jonatan Sandberg Forsgren

                                   NOTE!!! 
         Sometimes you must ignore the timing! Just listen to the song!

CONTACT:

www.myspace.com/iceclimbersrocks

[email protected]

G--17-16---15---14---13-------------12---17---16---15---14---13-----------12--
D-------------------------15---12---------------------------------15---12-----
A-----------------------------------------------------------------------------
E-----------------------------------------------------------------------------
                                                                              

G----|-------15------------------15--------12-|--17---16---15---14---13-------
D-10-|--15--------13--------15--------12------|---------------------------15--
A----|-----------------15---------------------|-------------------------------
E----|----------------------------------------|-------------------------------
                                              *                               

G----12------17---16---15---14---13-------------12---17---16---15---14---13---
D-12----10----------------------------15---12---------------------------------
A-----------------------------------------------------------------------------
E-----------------------------------------------------------------------------
                                                                              

G---------12----|-------15------------------15--------12-|--------------------
D-15---12----10-|--15--------13--------15--------12------|--------------------
A---------------|-----------------15---------------------|--------------------
E---------------|----------------------------------------|--------------------

        
Comments

No comments yet