Gametabs
Home
Tabs
Random

Open Your Eyes

Average rating: 2.000

1 ratings

Composer:

Tabber:

Style:

Instrument:

Created: July 10, 2011 at 12:00 AM

            This is a very beautiful song and I found that it could be put onto guitar, so this is what you have below. The tab starts
 from 0:32 (where the piano comes in). Please listen to tab before or while reading to fully understand the tab. Enjoy!

E || -------------------------------------------7----------
B || ---------------------------------------7--------------
G || --7--6-------------------6--7--6--9-----------7--6----
D || ---------9---------7--9------------------9------------
A || ------------7--9---------------------7----------------
E || ------------------------------------------------------

E || --------------------7---------------------------------
B || ------------------------------------------------------
G || -----9-----------------7--6--------------9------------
D || --------------7--9-----------9--------7---------------
A || --------7--9--------------------7--9------------------
E || ------------------------------------------------------

(Repeat to infinity from beginning of tab, actual song stops at about half way through the first part of the tab.)
        
Comments

No comments yet