Gametabs
Home
Tabs
Random

Memories

Average rating: 5.000

3 ratings

Composer:

Tabber:

Style:

Instrument:

Created: September 09, 2012 at 12:00 AM

            Song: Memories
Game: Dark Cloud
Composer: Tomohito Nishuira
Sept 7, 2012

I apologize for not adding any lengths to the notes, but you should be fine if you follow along to the Midi, 
hold all the notes as long as you can, and remember that the few hammer ons are played especially quick. 
"h" represents a hammer-on, *'s are the repeat point
happy playing


Tuning: Standard
Capo: 3

E|--1-----------1---0---------------|-------------5----3h5-3----------------|-1-----------1---0--------------------|
B|--------------3-----------1---1---|-3-----------3--------------------5----|-------------3-----------1---1--------|
G|*---------2---------------0-------|---------2--------------------2--------|---------2---------------0--------2h4-|
D|*-0---3---------------2-----------|-0---3--------------------2------------|-0---3---------------2----------------|
A|------------------3---------------|----------------------3----------------|-----------------3--------------------|
E|----------------------------------|---------------------------------------|--------------------------------------|


E|---------------------------------|-1-----------1---0---------------|-------------5---5---------------|
B|-------------3---1---------------|-------------3-----------1---1---|-3-----------3---------------5---|
G|-2-------2-----------0-----------|---------2---------------0-------|---------2---------------2-------|
D|-0---3-------------------3---2---|-0---3---------------2-----------|-0---3---------------2-----------|
A|---------------------------------|-----------------3---------------|-----------------3---------------|
E|---------------------------------|---------------------------------|---------------------------------|


E|-3-----------1---0h1-0----------------|---------0---1-------------------|-----------------------1---0---1-----|
B|-------------3---------------1---1----|-3---------------3-----------1---|-3-----------3--3--------------1-----|
G|---------2-------------------0--------|-----2---------------2---2-------|---------5---5-----------------------|
D|-0---3-------------------2------------|-0-----------------------3---2---|-0---3-------------2---3---5---------|
A|---------------------3----------------|---------------------------------|-------------------------------------|
E|--------------------------------------|---------------------------------|-------------------------------------|


E|-3------8------3--5--------5---3---5-----|-5---------------------------0---1---3-----|
B|-----------------------------------------|--------------5--6--5----------------------|
G|-----------7-----------------------------|--------7--7-----------5-----0-------0-----|
D|-0---3---------------5-----3---2---3-----|---------------------------------3---------|
A|-----------------------------------------|-----5-------------------------------------|
E|-----------------------------------------|-6-----------------------------------------|


E|-3-----------------------------------|-------------------------1---0---1-----|-3------8--------3----5--------5---3---5-----|
B|---------------------------------1---|-3-------1---3--3----------------1-----|-----------3---------------------------------|
G|--------5------5-------------2-------|-------------5---------------0---------|-----------------5---------------------------|
D|-----3-----5-------5-----3---2-------|-0---3-------------2-----3-------------|-0---3-------------------5-----3---2---3-----|
A|-3-------------------------------3---|---------------------------------------|---------------------------------------------|
E|-------------------------------------|---------------------------------------|---------------------------------------------|


E|-5------------0--1--0--------0---1---3-----|-0---------------------------------|
B|--------3--3-----1-----1-------------------|--------3--------------------------|
G|-----------------------------0-------0-----|---------------5---0--------------*|
D|---------------------------------3---------|-0---3-----5-----------3---2---3--*|
A|-----5-------------------------------------|-----------------------------------|
E|-6-----------------------------------------|-----------------------------------|


E|-1-----------1---0---------------|--------|
B|-------------3-----------1---1---|--------|
G|---------2---------------0-------|-2------|
D|-0---3---------------2-----------|-0------|
A|-----------------3---------------|--------|
E|---------------------------------|--------|



        
Comments

No comments yet