Gametabs
Home
Tabs
Random

Time of Separation

Average rating: 4.875

8 ratings

Composer:

Tabber:

Style:

Instrument:

Created: November 05, 2007 at 12:00 AM

            Gtr I (E A D G B E) - 'Untitled'

    Q=135
   4/4
    Gtr I
    H.        Q    H.        Q    H.        Q    H     Q  Q
||---------------|-0---------0--|-1---------5--|-3-----1--0--|
||o-3---------3--|--------------|--------------|-------------|
||---------2-----|--------2-----|--------2-----|-------2-----|
||--0---3--------|-----3--------|-----3--------|----3--------|
||o--------------|-4------------|-3------------|-2-----------|
||---------------|--------------|--------------|-------------|
    Q   Q  H       Q   Q  H       Q   Q  H       Q  Q  H


                                              1.105
  H.        Q    H.        Q    W             Q  Q  Q  Q
|-1---------5--|-3---------0--|-------------|----0--1--8---||
|--------------|--------------|-3--------1--|-3-----------o||
|--------------|--------------|-------------|--------------||
|-----0--3-----|--------2-----|-0--2--3-----|--------------||
|-1------------|-0---4--------|-------------|-------------o||
|--------------|--------------|-------------|--------------||
  Q   Q  H       Q   Q  H       Q  Q  Q  Q


  2.135
  H    Q  Q    H.        Q    H.        Q
|---------0--|-1---------5--|-3---------1--|
|-3----3-----|--------------|--------------|
|-2----------|--------------|--------0-----|
|------------|-----0--3-----|-----2--------|
|------------|-1------------|-3------------|
|------------|--------------|--------------|
  H            Q   Q  H       Q   Q  H


  H.        Q    H     Q  Q    H.        Q    H.        Q
|-0------------|----------0--|-1---------5--|-3---------8--|
|-----------3--|-3-----3-----|--------------|--------------|
|--------------|-------2-----|--------------|--------0-----|
|--------2-----|-0--3--------|-----0--3-----|-----2--------|
|-0---3--------|-------------|-1------------|-3------------|
|--------------|-------------|--------------|--------------|
  Q   Q  Q       Q  Q  Q       Q   Q  H       Q   Q  H


  W             H     Q  Q    H.        Q    H.        Q
|-5-----------|----------0--|-1---------5--|-3---------1--|
|-5-----------|-------3-----|--------------|--------------|
|-------0--2--|-------0-----|--------------|--------0-----|
|----2--------|----------2--|-----0--3-----|-----2--------|
|-4-----------|-0--4--------|-1------------|-3------------|
|-------------|-------------|--------------|--------------|
  Q  Q  Q  Q    Q  Q  Q  Q    Q   Q  H       Q   Q  H


  H.        Q    H     Q  Q    H.        Q    H.        Q
|-0------------|----------0--|-1---------5--|-3---------0--|
|-----------3--|-3-----3-----|--------------|--------------|
|--------------|-------2-----|--------------|--------0-----|
|--------2-----|-0--3--------|-----0--3-----|-----2--------|
|-0---3--------|-------------|-1------------|-3------------|
|--------------|-------------|--------------|--------------|
  Q   Q  Q       Q  Q  Q       Q   Q  H       Q   Q  H


                Q=105        
  W             Q  Q  Q  Q   
|-------------|----0--1--8--||
|-3--------1--|-3-----------||
|-------------|-------------||
|-0--2--3-----|-------------||
|-------------|-------------||
|-------------|-------------||
  Q  Q  Q  Q                 


        
Comments

@╔══╩══╦ (November 18, 2007 at 11:26 AM)

sounds unfinished to me maybe thats just me


@ajrock2000 (November 18, 2007 at 3:52 PM)

just faded it out like it does in the actual song..probly shouldnt have done that, but oh well.


@Noanzer (January 25, 2008 at 1:28 AM)

I would love to see a video of someone playing this. Or if you could put the chord shape switches in it'd be nice.