Gametabs
Home
Tabs
Random

Lunatic Wisdom Laboratory

Average rating: 4.000

1 ratings

Composer:

Tabber:

Style:

Instrument:

Created: April 05, 2012 at 12:00 AM

            Game: Dark Cloud 2
Song: Lunatic Wisdom Laboratory
Composer: Tomohito Nishiura
Tuning: EADGBe

 Q=123
 4/4


   Q    Q    Q    Q    Q    Q    Q    Q    Q    Q    Q    Q    Q    Q    Q    Q
e|-------------------|-------------------|-------------------|---------------------|
B|-------------------|-------------------|-------------------|---------------------|
G|----------------1--|-0-----------------|----------------1--|-0-------------------|
D|-----------3-------|------1------------|-----------3-------|------1--------------|
A|-1----4------------|-----------1----3--|-1----4------------|-----------1----3----|
E|-------------------|-------------------|-------------------|---------------------|

   Q    Q    Q    Q    Q    Q    S S E  E E   Q    Q    Q    Q    Q    Q    Q    Q
e|-------------------|----------------------|-------------------|-------------------|
B|-------------------|-----------1h2p1------|-------------------|-------------------|
G|-3--------------1--|-0----------------3p1-|-3--------------1--|-0-----------------|
D|-----------3-------|------1---------------|-----------3-------|------1------------|
A|-1----4------------|----------------------|-1----4------------|-----------1----3--|
E|-------------------|----------------------|-------------------|-------------------|

   Q    Q    Q    Q    Q    Q    S S E  E E    Q    Q    Q    Q    Q    Q    Q    Q
e|-------------------|-----------------------|-------------------|-------------------|
B|-------------------|-----------------------|-------------------|-------------------|
G|-3--------------1--|-0---------0h1p0-------|----------------1--|-0--------------1--|
D|-----------3-------|------1-----------3p1--|-3---------3-------|------1------------|
A|-1----4------------|-----------------------|-1----4------------|-----------1----3--|
E|-------------------|-----------------------|-------------------|-------------------|

   Q.    E  Q    E  E    E  E E E  E  E  E E    H.      E   E    E   E   E   E  E   E   E   E
e|---------------------|-6---------------8h9--|-9-------8------|-------------------------------|
B|-------1--L----2--4--|----------------------|-------------9--|-9-----------------------------|
G|-3-------------1--3--|----3h6p3--L----------|----------------|-------------------------------|
D|---------------------|--------------8-------|--------10--11--|--------11--10--L--11--10------|
A|---------------------|----------------------|----------------|---------------------------11--|
E|---------------------|----------------------|----------------|----11-------------------------|

   Q.    E  Q    E  E     E  E E E  E  E  E E    H.      E   E    E   E   E   E  E   E   E   E
e|----------------------|-6---------------8h9--|-9-------8------|-------------------------------|
B|-------1--L----2--4---|----------------------|-------------9--|-9-----------------------------|
G|-3-------------1--3---|----3h6p3--L----------|----------------|-------------------------------|
D|----------------------|--------------8-------|--------10--11--|--------11--10--L--11--10------|
A|----------------------|----------------------|----------------|---------------------------11--|
E|----------------------|----------------------|----------------|----11-------------------------|

    Q    Q    Q    Q    Q    Q    S S E  E  E    Q    Q    Q    Q    Q    Q    Q    Q
e|--------------------|------------------------|-------------------|-------------------|
B|--------------------|-----------1h2p1--------|-------------------|-------------------|
G|*-3--------------1--|-0----------------3--1--|-3--------------1--|-0-----------------|
D|*-----------3-------|------1-----------------|-----------3-------|------1------------|
A|--1----4------------|-----------1------3-----|-1----4------------|-----------1----3--|
E|--------------------|------------------------|-------------------|-------------------|

   Q    Q    Q    Q    Q    Q    S S E  E  E    Q    Q    Q    Q    Q    Q    Q    Q
e|-------------------|------------------------|-------------------|-------------------|
B|-------------------|------------------------|-------------------|-------------------|
G|-3--------------1--|-0---------0h1p0--------|----------------1--|-0--------------1--|
D|-----------3-------|------1-----------3--1--|-3---------3-------|------1------------|
A|-1----4------------|-----------1------3-----|-1----4------------|-----------1----3--|
E|-------------------|------------------------|-------------------|-------------------|

   Q.    E  Q    E  E    E  E E E  E  E  E E    H.      E   E    E   E   E   E  E  E  E   E
e|---------------------|-6---------------8h9--|-9-------8------|-----------------------------|
B|-------1--1----2--4--|----------------------|-------------9--|-9---------------------------|
G|-3-------------1--3--|----3h6p3--L----------|----------------|-----------------------------|
D|---------------------|--------------8-------|--------10--11--|--------11--10--L--8---------|
A|---------------------|----------------------|----------------|----------------------8------|
E|---------------------|----------------------|----------------|----11-------------------11--|

   Q.    E  Q    E  E    E  E E E  E  E  E E    H.      E   E    E   E   E   E  E   E   E   E
e|---------------------|-6---------------8h9--|-9-------8------|-------------------------------|
B|-------1--L----2--4--|----------------------|-------------9--|-9-----------------------------|
G|-3-------------1--3--|----3h6p3--L----------|----------------|------------------------8------|
D|---------------------|--------------8-------|--------10--11--|--------11--10--L--11--10------|
A|---------------------|----------------------|----------------|---------------------------11--|
E|---------------------|----------------------|----------------|----11-------------------------|

   Q    Q    Q    E  E     Q    Q    Q    Q    Q.   E  E  E  E   E    Q   E  E  E  E  E  E
e|-----------------------|-------------------|----------------------|-----------------------|
B|-6---------------------|-------------------|----------------------|-----------------------|
G|----------------8--8---|-L--------------8--|---------------6------|--------------------3--|
D|-----------8-----------|-----------6-------|-6----------6--6--10--|-L---1--3--------------|
A|----------------6------|----------------6--|---------6------------|-----------1--4--3--1--|
E|------6----------------|------8------------|------8---------------|-----------------------|

   Q    Q    Q    E  E    Q    Q    Q    Q    Q.    E  E  E  E  E    Q    E  E  E  E  E  E
e|-1--------------------|-------------------|----------------------|------------------------|
B|-----------1----4--4--|-L--------------4--|----------------2-----|---------------2--1--4--|
G|----------------------|-----------1-------|-1-----------1--1--3--|-3-------------------3--|
D|----------------1-----|----------------1--|----------1-----------|------1--3--------------|
A|------1---------------|------3------------|-------1--------------|------------1-----------|
E|----------------------|-------------------|----------------------|------------------------|

   Q    Q    Q    E  E    Q    Q    Q    Q    Q.    E  E  E  E  E    Q    E  E  E  E   E  E
e|-1--------------4--4--|-L--------------9--|-8-----------------6--|-6-----------------------|
B|----------------------|-------------------|----------------9-----|-------------------------|
G|-----------1----1-----|-------------------|----------------6-----|---------------6------8--|
D|----------------------|-----------6-------|-------------6-----8--|-8----------------10-----|
A|------1---------------|-------------------|----------6-----------|------6--8---------------|
E|----------------------|------6------------|-------8--------------|------------6------------|

   Q    Q    Q    E  E    Q    Q    Q    Q    Q.    E  E  E  E  E    Q    E  E  E  E  Q
e|----------------------|-------------------|----------------------|---------------------|
B|-6--------------4--4--|-L-----------------|----------------------|---------------------|
G|----------------------|----------------6--|-5--------------6-----|---------------6--5--|
D|-----------8----------|-----------6-------|-------------6--6--8--|-8-------------------|
A|----------------6-----|----------------6--|----------6-----------|------6--8-----------|
E|------6---------------|------8------------|-------8--------------|------------6--------|

   W
e|--------|
B|--------|
G|--------|
D|-8------|
A|--------|
E|-6------|



        
Comments

@diralark (April 05, 2012 at 10:13 PM)

All these "6" and "1" give me a big envy to apply a transposing (-6 semitone) .. I guess it's because I always prefer play "0" notes. Don't you ?