Gametabs
Home
Tabs
Random

Only You

Average rating: No ratings

Tabber:

Style:

Instrument:

Created: January 03, 2021 at 12:00 AM

            Title: Only You
SubTitle: Cyberpunk 2077
Artist: Cecil Chau (GuitarSVD)
Music: Etta Sorentino
Tempo = 80
Nylon Guitar

Legend
L - tied note
x - dead note
h - hammer on/pull off
b - bend
s - slide
~ - vibrato
g - ghost note
> - accentuated note
t - trill
M - palm mute
. - staccato
P - popping (bass)
S - slapping (bass)
+ - tapping
W - wide vibrato
< - fade in
w - whammy bar
= - tremolo picking
v - brush up
^ - brush down
V - pick stroke up
n - pick stroke down

                            ^                ^               
E |-----------0L-0-------------|-----------0L-0-------------|
B |-----------5L-5-------------|-----------5L-5-------------|
G |-----2L-2-------------------|-----2L-2-------------------|
D |----------------------------|----------------------------|
A |--0-------------------------|--0-------------------------|
E |----------------------------|----------------------------|

       ^
-----------0L-0-------------|-----------0L-0-------------|-----0-------------|
-----------5L-5-------------|-----------5L-5-------------|-----1-------------|
-----2L-2-------------------|-----2L-2-------------------|--2--4-------------|
----------------------------|----------------------------|-------------------|
--0-------------------------|--0-------------------------|--------------0----|
----------------------------|----------------------------|-------------------|


-------------------|-------------------------------|
-----3-------------|-----------3-------------------|
-----0-------------|-----------2-----2L------------|
--4--4-------------|--3--------3-------------------|
--------------0----|--------------------------0----|
-------------------|-------------------------------|


--------------0L-0-------------|-----0----------------------------------|
--------------1L-1-------------|-----------------------1L-1-------------|
--2-----2L-2--4L-4-------------|--2-----------------4-------------------|
-------------------------------|-----------------2----------------------|
-----0-------------------------|--------------0-------------------------|
-------------------------------|----------------------------------------|


----------------------------------------|
-----3--------------3-------------------|
-----------------------2L-2-------------|
--4--------------0----------------------|
--------------0-------------------------|
----------------------------------------|


----------------------------------------------------|
-----------3-----------------------3L-3-------------|
-----------------2L-------------2-------------------|
--3--------------------------0----------------------|
--------------------------0-------------------------|
----------------------------------------------------|


-----------------0-------------|-----0----------------------------------|
--------------3-----3----------|-----------------------1-----1----------|
--2--------2-----------2-------|--2-----------------2-----4-----4-------|
--------3-----------------3----|-----------------2-----------------2----|
-----0-------------------------|--------------0-------------------------|
-------------------------------|----------------------------------------|


--3--2----------------------------------|
--------3-----------3-------------------|
-----------------2-----2L-2-------------|
--------------0-------------------------|
----------------------------------------|
----------------------------------------|


--1-------------------------------------|--0-------|
-----1--------------1--0L-0-------------|----------|
-----------------2-----------2----------|----------|
--------------3-----------------3L------|-----3----|
----------------------------------------|----------|
----------------------------------------|----------|


-----0----------------------------------|
-----------------------0--1--0----------|
--2-----------------2-----------2-------|
-----------------2-----------------2----|
--------------0-------------------------|
----------------------------------------|


--3--2----------------------------------|
--------3-----------3-------------------|
-----------------2-----2L-2-------------|
--------------0-------------------------|
----------------------------------------|
----------------------------------------|


----------------------------------------|-------------------------------|
--1--0--------------0-------------------|--------------0h-1h-0----------|
--------2L------------------------------|--2--------2-----------2-------|
-----------------3-----3L-3-------------|--------3-----------------3----|
----------------------------------------|-------------------------------|
--------------1-------------------------|-----1-------------------------|


--------------0-----0-----------------0-----0-------|
--------1-----------------------1-------------------|
-----2-----2-----2-----2-----2-----2-----2-----2----|
----------------------------------------------------|
--0-----------------------0-------------------------|
----------------------------------------------------|


----------------------------------------------------|
--------1-----3-----3-----------1-----3-----3-------|
-----------2-----2-----2-----------2-----2-----2----|
-----4-----------------------4----------------------|
--0-----------------------0-------------------------|
----------------------------------------------------|


----------------------------------------------------|
--------------3-----3-----------------3-----3-------|
--------2-----------------------2-------------------|
-----3-----3-----3-----3-----3-----3-----3-----3----|
--0-----------------------0-------------------------|
----------------------------------------------------|


----------------------------------------------------|
--------------1-----1-----------------1-----1-------|
--------2-----------------------2-------------------|
-----2-----2-----2-----2-----2-----2-----2-----2----|
--0-----------------------0-------------------------|
----------------------------------------------------|


--------------0-----0-----------------0-----0-------|
--------1-----1-----1-----------1-----1-----1-------|
-----2-----2-----2-----2-----2-----2-----2-----2----|
----------------------------------------------------|
--0-----------------------0-------------------------|
----------------------------------------------------|


----------------------------------------------------|
--------1-----3-----3-----------1-----3-----3-------|
-----------2--2--2--2--2-----------2--2--2--2--2----|
-----4-----------------------4----------------------|
--0-----------------------0-------------------------|
----------------------------------------------------|


----------------------------------------------------|
--------------3-----3-----------------3-----3-------|
--------2-----2-----2-----------2-----2-----2-------|
-----3-----3-----3-----3-----3-----3-----3-----3----|
--0-----------------------0-------------------------|
----------------------------------------------------|


----------------------------------------------------|-----12------------|
--------------1-----1-----------------1-------------|--10---------------|
--------2-----2-----2-----------2-----2-------------|-------------------|
-----2-----2-----2-----2-----2-----2----------------|-------------------|
--0-----------------------0-------------------------|--------------7----|
----------------------------------------------------|-------------------|


-----10------------|-----------10------------------|----------|
-----10------------|-----------10----10L-----------|--10------|
--11---------------|--10---------------------------|----------|
--------------12---|--------------------------12L--|-----12---|
-------------------|-------------------------------|----------|
-------------------|-------------------------------|----------|


-----12------------|--15-14------------|--8-------------|-------||
--10---------------|--------15---------|-----12---------|-------||
-------------------|-------------------|--10------------|-------||
-------------------|--------------12---|--------7L------|--7----||
--------------12---|-------------------|----------------|-------||
-------------------|-------------------|----------------|-------||


        
Comments

No comments yet